  0
SECTION
  2
HEADER
  9
$ACADVER
  1
AC1015
  9
$ACADMAINTVER
 70
     6
  9
$DWGCODEPAGE
  3
ANSI_932
  9
$INSBASE
 10
0.0
 20
0.0
 30
0.0
  9
$EXTMIN
 10
1.000000E+20
 20
1.000000E+20
 30
1.000000E+20
  9
$EXTMAX
 10
-1.000000E+20
 20
-1.000000E+20
 30
-1.000000E+20
  9
$LIMMIN
 10
0.0
 20
0.0
  9
$LIMMAX
 10
420.0
 20
297.0
  9
$ORTHOMODE
 70
     0
  9
$REGENMODE
 70
     1
  9
$FILLMODE
 70
     1
  9
$QTEXTMODE
 70
     0
  9
$MIRRTEXT
 70
     1
  9
$LTSCALE
 40
1.0
  9
$ATTMODE
 70
     1
  9
$TEXTSIZE
 40
2.5
  9
$TRACEWID
 40
1.0
  9
$TEXTSTYLE
  7
Standard
  9
$CLAYER
  8
0
  9
$CELTYPE
  6
ByLayer
  9
$CECOLOR
 62
   256
  9
$CELTSCALE
 40
1.0
  9
$DISPSILH
 70
     0
  9
$DIMSCALE
 40
1.0
  9
$DIMASZ
 40
2.5
  9
$DIMEXO
 40
0.625
  9
$DIMDLI
 40
3.75
  9
$DIMRND
 40
0.0
  9
$DIMDLE
 40
0.0
  9
$DIMEXE
 40
1.25
  9
$DIMTP
 40
0.0
  9
$DIMTM
 40
0.0
  9
$DIMTXT
 40
2.5
  9
$DIMCEN
 40
2.5
  9
$DIMTSZ
 40
0.0
  9
$DIMTOL
 70
     0
  9
$DIMLIM
 70
     0
  9
$DIMTIH
 70
     0
  9
$DIMTOH
 70
     0
  9
$DIMSE1
 70
     0
  9
$DIMSE2
 70
     0
  9
$DIMTAD
 70
     1
  9
$DIMZIN
 70
     8
  9
$DIMBLK
  1

  9
$DIMASO
 70
     1
  9
$DIMSHO
 70
     1
  9
$DIMPOST
  1

  9
$DIMAPOST
  1

  9
$DIMALT
 70
     0
  9
$DIMALTD
 70
     3
  9
$DIMALTF
 40
0.03937
  9
$DIMLFAC
 40
1.0
  9
$DIMTOFL
 70
     1
  9
$DIMTVP
 40
0.0
  9
$DIMTIX
 70
     0
  9
$DIMSOXD
 70
     0
  9
$DIMSAH
 70
     0
  9
$DIMBLK1
  1

  9
$DIMBLK2
  1

  9
$DIMSTYLE
  2
ISO-25
  9
$DIMCLRD
 70
     0
  9
$DIMCLRE
 70
     0
  9
$DIMCLRT
 70
     0
  9
$DIMTFAC
 40
1.0
  9
$DIMGAP
 40
0.625
  9
$DIMJUST
 70
     0
  9
$DIMSD1
 70
     0
  9
$DIMSD2
 70
     0
  9
$DIMTOLJ
 70
     0
  9
$DIMTZIN
 70
     8
  9
$DIMALTZ
 70
     0
  9
$DIMALTTZ
 70
     0
  9
$DIMUPT
 70
     0
  9
$DIMDEC
 70
     2
  9
$DIMTDEC
 70
     2
  9
$DIMALTU
 70
     2
  9
$DIMALTTD
 70
     3
  9
$DIMTXSTY
  7
Standard
  9
$DIMAUNIT
 70
     0
  9
$DIMADEC
 70
     0
  9
$DIMALTRND
 40
0.0
  9
$DIMAZIN
 70
     0
  9
$DIMDSEP
 70
    44
  9
$DIMATFIT
 70
     3
  9
$DIMFRAC
 70
     0
  9
$DIMLDRBLK
  1

  9
$DIMLUNIT
 70
     2
  9
$DIMLWD
 70
    -2
  9
$DIMLWE
 70
    -2
  9
$DIMTMOVE
 70
     0
  9
$LUNITS
 70
     2
  9
$LUPREC
 70
     4
  9
$SKETCHINC
 40
1.0
  9
$FILLETRAD
 40
10.0
  9
$AUNITS
 70
     0
  9
$AUPREC
 70
     0
  9
$MENU
  1
.
  9
$ELEVATION
 40
0.0
  9
$PELEVATION
 40
0.0
  9
$THICKNESS
 40
0.0
  9
$LIMCHECK
 70
     0
  9
$CHAMFERA
 40
10.0
  9
$CHAMFERB
 40
10.0
  9
$CHAMFERC
 40
20.0
  9
$CHAMFERD
 40
0.0
  9
$SKPOLY
 70
     0
  9
$TDCREATE
 40
2455777.861711354
  9
$TDUCREATE
 40
2455777.486711354
  9
$TDUPDATE
 40
2455777.861711366
  9
$TDUUPDATE
 40
2455777.486711366
  9
$TDINDWG
 40
0.0000000116
  9
$TDUSRTIMER
 40
0.0000000116
  9
$USRTIMER
 70
     1
  9
$ANGBASE
 50
0.0
  9
$ANGDIR
 70
     0
  9
$PDMODE
 70
     3
  9
$PDSIZE
 40
-0.7
  9
$PLINEWID
 40
0.0
  9
$SPLFRAME
 70
     0
  9
$SPLINETYPE
 70
     6
  9
$SPLINESEGS
 70
     8
  9
$HANDSEED
  5
19A
  9
$SURFTAB1
 70
     6
  9
$SURFTAB2
 70
     6
  9
$SURFTYPE
 70
     6
  9
$SURFU
 70
     6
  9
$SURFV
 70
     6
  9
$UCSBASE
  2

  9
$UCSNAME
  2

  9
$UCSORG
 10
0.0
 20
0.0
 30
0.0
  9
$UCSXDIR
 10
1.0
 20
0.0
 30
0.0
  9
$UCSYDIR
 10
0.0
 20
1.0
 30
0.0
  9
$UCSORTHOREF
  2

  9
$UCSORTHOVIEW
 70
     0
  9
$UCSORGTOP
 10
0.0
 20
0.0
 30
0.0
  9
$UCSORGBOTTOM
 10
0.0
 20
0.0
 30
0.0
  9
$UCSORGLEFT
 10
0.0
 20
0.0
 30
0.0
  9
$UCSORGRIGHT
 10
0.0
 20
0.0
 30
0.0
  9
$UCSORGFRONT
 10
0.0
 20
0.0
 30
0.0
  9
$UCSORGBACK
 10
0.0
 20
0.0
 30
0.0
  9
$PUCSBASE
  2

  9
$PUCSNAME
  2

  9
$PUCSORG
 10
0.0
 20
0.0
 30
0.0
  9
$PUCSXDIR
 10
1.0
 20
0.0
 30
0.0
  9
$PUCSYDIR
 10
0.0
 20
1.0
 30
0.0
  9
$PUCSORTHOREF
  2

  9
$PUCSORTHOVIEW
 70
     0
  9
$PUCSORGTOP
 10
0.0
 20
0.0
 30
0.0
  9
$PUCSORGBOTTOM
 10
0.0
 20
0.0
 30
0.0
  9
$PUCSORGLEFT
 10
0.0
 20
0.0
 30
0.0
  9
$PUCSORGRIGHT
 10
0.0
 20
0.0
 30
0.0
  9
$PUCSORGFRONT
 10
0.0
 20
0.0
 30
0.0
  9
$PUCSORGBACK
 10
0.0
 20
0.0
 30
0.0
  9
$USERI1
 70
     0
  9
$USERI2
 70
     0
  9
$USERI3
 70
     0
  9
$USERI4
 70
     0
  9
$USERI5
 70
     0
  9
$USERR1
 40
0.0
  9
$USERR2
 40
0.0
  9
$USERR3
 40
0.0
  9
$USERR4
 40
0.0
  9
$USERR5
 40
0.0
  9
$WORLDVIEW
 70
     1
  9
$SHADEDGE
 70
     3
  9
$SHADEDIF
 70
    70
  9
$TILEMODE
 70
     1
  9
$MAXACTVP
 70
    64
  9
$PINSBASE
 10
0.0
 20
0.0
 30
0.0
  9
$PLIMCHECK
 70
     0
  9
$PEXTMIN
 10
1.000000E+20
 20
1.000000E+20
 30
1.000000E+20
  9
$PEXTMAX
 10
-1.000000E+20
 20
-1.000000E+20
 30
-1.000000E+20
  9
$PLIMMIN
 10
0.0
 20
0.0
  9
$PLIMMAX
 10
420.0
 20
297.0
  9
$UNITMODE
 70
     0
  9
$VISRETAIN
 70
     1
  9
$PLINEGEN
 70
     0
  9
$PSLTSCALE
 70
     1
  9
$TREEDEPTH
 70
  3020
  9
$CMLSTYLE
  2
Standard
  9
$CMLJUST
 70
     1
  9
$CMLSCALE
 40
1.0
  9
$PROXYGRAPHICS
 70
     1
  9
$MEASUREMENT
 70
     1
  9
$CELWEIGHT
370
    -1
  9
$ENDCAPS
280
     0
  9
$JOINSTYLE
280
     0
  9
$LWDISPLAY
290
     0
  9
$INSUNITS
 70
     4
  9
$HYPERLINKBASE
  1

  9
$STYLESHEET
  1

  9
$XEDIT
290
     1
  9
$CEPSNTYPE
380
     0
  9
$PSTYLEMODE
290
     1
  9
$FINGERPRINTGUID
  2
{FAEB1C30-E019-11D5-929B-00C0DF256EC4}
  9
$VERSIONGUID
  2
{FAEB1C32-E019-11D5-929B-00C0DF256EC4}
  9
$EXTNAMES
290
     1
  9
$PSVPSCALE
 40
0.0
  9
$OLESTARTUP
290
     0
  0
ENDSEC
  0
SECTION
  2
CLASSES
  0
CLASS
  1
ACDBDICTIONARYWDFLT
  2
AcDbDictionaryWithDefault
  3
ObjectDBX Classes
 90
        0
280
     0
281
     0
  0
CLASS
  1
ACDBPLACEHOLDER
  2
AcDbPlaceHolder
  3
ObjectDBX Classes
 90
        0
280
     0
281
     0
  0
CLASS
  1
LAYOUT
  2
AcDbLayout
  3
ObjectDBX Classes
 90
        0
280
     0
281
     0
  0
ENDSEC
  0
SECTION
  2
TABLES
  0
TABLE
  2
VPORT
  5
8
330
0
100
AcDbSymbolTable
 70
     2
  0
VPORT
  5
29
330
8
100
AcDbSymbolTableRecord
100
AcDbViewportTableRecord
  2
*Active
 70
     0
 10
0.0
 20
0.0
 11
1.0
 21
1.0
 12
50.0
 22
50.0
 13
0.0
 23
0.0
 14
10.0
 24
10.0
 15
10.0
 25
10.0
 16
0.0
 26
0.0
 36
1.0
 17
0.0
 27
0.0
 37
0.0
 40
103.921569
 41
1.0
 42
50.0
 43
0.0
 44
0.0
 50
0.0
 51
0.0
 71
     0
 72
   100
 73
     1
 74
     3
 75
     0
 76
     0
 77
     0
 78
     0
281
     0
 65
     1
110
0.0
120
0.0
130
0.0
111
1.0
121
0.0
131
0.0
112
0.0
122
1.0
132
0.0
 79
     0
146
0.0
  0
ENDTAB
  0
TABLE
  2
LTYPE
  5
5
330
0
100
AcDbSymbolTable
 70
     1
  0
LTYPE
  5
14
330
5
100
AcDbSymbolTableRecord
100
AcDbLinetypeTableRecord
  2
ByBlock
 70
     0
  3

 72
    65
 73
     0
 40
0.0
  0
LTYPE
  5
15
330
5
100
AcDbSymbolTableRecord
100
AcDbLinetypeTableRecord
  2
ByLayer
 70
     0
  3

 72
    65
 73
     0
 40
0.0
  0
LTYPE
  5
16
330
5
100
AcDbSymbolTableRecord
100
AcDbLinetypeTableRecord
  2
Continuous
 70
     0
  3

 72
    65
 73
     0
 40
0.0
  0
ENDTAB
  0
TABLE
  2
LAYER
  5
2
330
0
100
AcDbSymbolTable
 70
     1
  0
LAYER
  5
10
330
2
100
AcDbSymbolTableRecord
100
AcDbLayerTableRecord
  2
0
 70
     0
 62
     7
  6
Continuous
370
    -3
390
F
  0
ENDTAB
  0
TABLE
  2
STYLE
  5
3
330
0
100
AcDbSymbolTable
 70
     1
  0
STYLE
  5
11
330
3
100
AcDbSymbolTableRecord
100
AcDbTextStyleTableRecord
  2
Standard
 70
     0
 40
1.0
 41
1.0
 50
0.0
 71
     0
 42
2.5
  3
RomanS
  4

  0
ENDTAB
  0
TABLE
  2
VIEW
  5
6
330
0
100
AcDbSymbolTable
 70
     0
  0
ENDTAB
  0
TABLE
  2
UCS
  5
7
330
0
100
AcDbSymbolTable
 70
     0
  0
ENDTAB
  0
TABLE
  2
APPID
  5
9
330
0
100
AcDbSymbolTable
 70
     1
  0
APPID
  5
12
330
9
100
AcDbSymbolTableRecord
100
AcDbRegAppTableRecord
  2
ACAD
 70
     0
  0
ENDTAB
  0
TABLE
  2
DIMSTYLE
  5
A
330
0
100
AcDbSymbolTable
 70
     1
100
AcDbDimStyleTable
  0
DIMSTYLE
105
27
330
A
100
AcDbSymbolTableRecord
100
AcDbDimStyleTableRecord
  2
ISO-25
 70
     0
 41
2.5
 42
0.625
 44
1.25
 73
     0
 74
     0
 77
     1
 78
     8
 79
     2
140
2.5
141
2.5
146
0.0
147
0.625
271
     2
272
     0
273
     0
274
     0
278
    44
283
     0
289
     0
340
11
  0
ENDTAB
  0
TABLE
  2
BLOCK_RECORD
  5
1
330
0
100
AcDbSymbolTable
 70
     1
  0
BLOCK_RECORD
  5
1F
330
1
100
AcDbSymbolTableRecord
100
AcDbBlockTableRecord
  2
*Model_Space
340
22
  0
BLOCK_RECORD
  5
1B
330
1
100
AcDbSymbolTableRecord
100
AcDbBlockTableRecord
  2
*Paper_Space
340
1E
  0
BLOCK_RECORD
  5
23
330
1
100
AcDbSymbolTableRecord
100
AcDbBlockTableRecord
  2
*Paper_Space0
340
26
  0
ENDTAB
  0
ENDSEC
  0
SECTION
  2
BLOCKS
  0
BLOCK
  5
20
330
1F
100
AcDbEntity
  8
0
100
AcDbBlockBegin
  2
*Model_Space
 70
     0
 71
     0
 10
0.0
 20
0.0
 30
0.0
  3
*Model_Space
  1

  0
ENDBLK
  5
21
330
1F
100
AcDbEntity
  8
0
100
AcDbBlockEnd
  0
BLOCK
  5
1C
330
1B
100
AcDbEntity
 67
     1
  8
0
100
AcDbBlockBegin
  2
*Paper_Space
 70
     0
 71
     0
 10
0.0
 20
0.0
 30
0.0
  3
*Paper_Space
  1

  0
ENDBLK
  5
1D
330
1B
100
AcDbEntity
 67
     1
  8
0
100
AcDbBlockEnd
  0
BLOCK
  5
24
330
23
100
AcDbEntity
  8
0
100
AcDbBlockBegin
  2
*Paper_Space0
 70
     0
 71
     0
 10
0.0
 20
0.0
 30
0.0
  3
*Paper_Space0
  1

  0
ENDBLK
  5
25
330
23
100
AcDbEntity
  8
0
100
AcDbBlockEnd
  0
ENDSEC
  0
SECTION
  2
ENTITIES
  0
LWPOLYLINE
  5
2A
330
1F
100
AcDbEntity
  8
0
100
AcDbPolyline
 90
        2
 70
   128
 43
0.0
 10
63.500167
 20
73.645667
 10
62.992167
 20
73.561
  0
LWPOLYLINE
  5
2B
330
1F
100
AcDbEntity
  8
0
100
AcDbPolyline
 90
        2
 70
   128
 43
0.0
 10
62.992167
 20
73.561
 10
62.568833
 20
73.349333
  0
LWPOLYLINE
  5
2C
330
1F
100
AcDbEntity
  8
0
100
AcDbPolyline
 90
        2
 70
   128
 43
0.0
 10
62.568833
 20
73.349333
 10
62.230167
 20
73.010667
  0
LWPOLYLINE
  5
2D
330
1F
100
AcDbEntity
  8
0
100
AcDbPolyline
 90
        2
 70
   128
 43
0.0
 10
62.230167
 20
73.010667
 10
61.976167
 20
72.545
  0
LWPOLYLINE
  5
2E
330
1F
100
AcDbEntity
  8
0
100
AcDbPolyline
 90
        2
 70
   128
 43
0.0
 10
61.976167
 20
72.545
 10
61.8915
 20
72.079333
  0
LWPOLYLINE
  5
2F
330
1F
100
AcDbEntity
  8
0
100
AcDbPolyline
 90
        2
 70
   128
 43
0.0
 10
61.8915
 20
72.079333
 10
61.976167
 20
71.571333
  0
LWPOLYLINE
  5
30
330
1F
100
AcDbEntity
  8
0
100
AcDbPolyline
 90
        2
 70
   128
 43
0.0
 10
61.976167
 20
71.571333
 10
62.230167
 20
71.148
  0
LWPOLYLINE
  5
31
330
1F
100
AcDbEntity
  8
0
100
AcDbPolyline
 90
        2
 70
   128
 43
0.0
 10
62.230167
 20
71.148
 10
62.568833
 20
70.767
  0
LWPOLYLINE
  5
32
330
1F
100
AcDbEntity
  8
0
100
AcDbPolyline
 90
        2
 70
   128
 43
0.0
 10
62.568833
 20
70.767
 10
62.992167
 20
70.555333
  0
LWPOLYLINE
  5
33
330
1F
100
AcDbEntity
  8
0
100
AcDbPolyline
 90
        2
 70
   128
 43
0.0
 10
62.992167
 20
70.555333
 10
63.500167
 20
70.470667
  0
LWPOLYLINE
  5
34
330
1F
100
AcDbEntity
  8
0
100
AcDbPolyline
 90
        2
 70
   128
 43
0.0
 10
63.500167
 20
70.470667
 10
64.008167
 20
70.555333
  0
LWPOLYLINE
  5
35
330
1F
100
AcDbEntity
  8
0
100
AcDbPolyline
 90
        2
 70
   128
 43
0.0
 10
64.008167
 20
70.555333
 10
64.4315
 20
70.767
  0
LWPOLYLINE
  5
36
330
1F
100
AcDbEntity
  8
0
100
AcDbPolyline
 90
        2
 70
   128
 43
0.0
 10
64.4315
 20
70.767
 10
64.770167
 20
71.148
  0
LWPOLYLINE
  5
37
330
1F
100
AcDbEntity
  8
0
100
AcDbPolyline
 90
        2
 70
   128
 43
0.0
 10
64.770167
 20
71.148
 10
65.024167
 20
71.571333
  0
LWPOLYLINE
  5
38
330
1F
100
AcDbEntity
  8
0
100
AcDbPolyline
 90
        2
 70
   128
 43
0.0
 10
65.024167
 20
71.571333
 10
65.0665
 20
72.079333
  0
LWPOLYLINE
  5
39
330
1F
100
AcDbEntity
  8
0
100
AcDbPolyline
 90
        2
 70
   128
 43
0.0
 10
65.0665
 20
72.079333
 10
65.024167
 20
72.545
  0
LWPOLYLINE
  5
3A
330
1F
100
AcDbEntity
  8
0
100
AcDbPolyline
 90
        2
 70
   128
 43
0.0
 10
65.024167
 20
72.545
 10
64.770167
 20
73.010667
  0
LWPOLYLINE
  5
3B
330
1F
100
AcDbEntity
  8
0
100
AcDbPolyline
 90
        2
 70
   128
 43
0.0
 10
64.770167
 20
73.010667
 10
64.4315
 20
73.349333
  0
LWPOLYLINE
  5
3C
330
1F
100
AcDbEntity
  8
0
100
AcDbPolyline
 90
        2
 70
   128
 43
0.0
 10
64.4315
 20
73.349333
 10
64.008167
 20
73.561
  0
LWPOLYLINE
  5
3D
330
1F
100
AcDbEntity
  8
0
100
AcDbPolyline
 90
        2
 70
   128
 43
0.0
 10
64.008167
 20
73.561
 10
63.500167
 20
73.645667
  0
LWPOLYLINE
  5
3E
330
1F
100
AcDbEntity
  8
0
100
AcDbPolyline
 90
        2
 70
   128
 43
0.0
 10
63.500167
 20
133.895333
 10
62.992167
 20
133.810667
  0
LWPOLYLINE
  5
3F
330
1F
100
AcDbEntity
  8
0
100
AcDbPolyline
 90
        2
 70
   128
 43
0.0
 10
62.992167
 20
133.810667
 10
62.568833
 20
133.599
  0
LWPOLYLINE
  5
40
330
1F
100
AcDbEntity
  8
0
100
AcDbPolyline
 90
        2
 70
   128
 43
0.0
 10
62.568833
 20
133.599
 10
62.230167
 20
133.218
  0
LWPOLYLINE
  5
41
330
1F
100
AcDbEntity
  8
0
100
AcDbPolyline
 90
        2
 70
   128
 43
0.0
 10
62.230167
 20
133.218
 10
61.976167
 20
132.794667
  0
LWPOLYLINE
  5
42
330
1F
100
AcDbEntity
  8
0
100
AcDbPolyline
 90
        2
 70
   128
 43
0.0
 10
61.976167
 20
132.794667
 10
61.8915
 20
132.286667
  0
LWPOLYLINE
  5
43
330
1F
100
AcDbEntity
  8
0
100
AcDbPolyline
 90
        2
 70
   128
 43
0.0
 10
61.8915
 20
132.286667
 10
61.976167
 20
131.821
  0
LWPOLYLINE
  5
44
330
1F
100
AcDbEntity
  8
0
100
AcDbPolyline
 90
        2
 70
   128
 43
0.0
 10
61.976167
 20
131.821
 10
62.230167
 20
131.355333
  0
LWPOLYLINE
  5
45
330
1F
100
AcDbEntity
  8
0
100
AcDbPolyline
 90
        2
 70
   128
 43
0.0
 10
62.230167
 20
131.355333
 10
62.568833
 20
131.016667
  0
LWPOLYLINE
  5
46
330
1F
100
AcDbEntity
  8
0
100
AcDbPolyline
 90
        2
 70
   128
 43
0.0
 10
62.568833
 20
131.016667
 10
62.992167
 20
130.805
  0
LWPOLYLINE
  5
47
330
1F
100
AcDbEntity
  8
0
100
AcDbPolyline
 90
        2
 70
   128
 43
0.0
 10
62.992167
 20
130.805
 10
63.500167
 20
130.720333
  0
LWPOLYLINE
  5
48
330
1F
100
AcDbEntity
  8
0
100
AcDbPolyline
 90
        2
 70
   128
 43
0.0
 10
63.500167
 20
130.720333
 10
64.008167
 20
130.805
  0
LWPOLYLINE
  5
49
330
1F
100
AcDbEntity
  8
0
100
AcDbPolyline
 90
        2
 70
   128
 43
0.0
 10
64.008167
 20
130.805
 10
64.4315
 20
131.016667
  0
LWPOLYLINE
  5
4A
330
1F
100
AcDbEntity
  8
0
100
AcDbPolyline
 90
        2
 70
   128
 43
0.0
 10
64.4315
 20
131.016667
 10
64.770167
 20
131.355333
  0
LWPOLYLINE
  5
4B
330
1F
100
AcDbEntity
  8
0
100
AcDbPolyline
 90
        2
 70
   128
 43
0.0
 10
64.770167
 20
131.355333
 10
65.024167
 20
131.821
  0
LWPOLYLINE
  5
4C
330
1F
100
AcDbEntity
  8
0
100
AcDbPolyline
 90
        2
 70
   128
 43
0.0
 10
65.024167
 20
131.821
 10
65.0665
 20
132.286667
  0
LWPOLYLINE
  5
4D
330
1F
100
AcDbEntity
  8
0
100
AcDbPolyline
 90
        2
 70
   128
 43
0.0
 10
65.0665
 20
132.286667
 10
65.024167
 20
132.794667
  0
LWPOLYLINE
  5
4E
330
1F
100
AcDbEntity
  8
0
100
AcDbPolyline
 90
        2
 70
   128
 43
0.0
 10
65.024167
 20
132.794667
 10
64.770167
 20
133.218
  0
LWPOLYLINE
  5
4F
330
1F
100
AcDbEntity
  8
0
100
AcDbPolyline
 90
        2
 70
   128
 43
0.0
 10
64.770167
 20
133.218
 10
64.4315
 20
133.599
  0
LWPOLYLINE
  5
50
330
1F
100
AcDbEntity
  8
0
100
AcDbPolyline
 90
        2
 70
   128
 43
0.0
 10
64.4315
 20
133.599
 10
64.008167
 20
133.810667
  0
LWPOLYLINE
  5
51
330
1F
100
AcDbEntity
  8
0
100
AcDbPolyline
 90
        2
 70
   128
 43
0.0
 10
64.008167
 20
133.810667
 10
63.500167
 20
133.895333
  0
LWPOLYLINE
  5
52
330
1F
100
AcDbEntity
  8
0
100
AcDbPolyline
 90
        2
 70
   128
 43
0.0
 10
107.907833
 20
73.645667
 10
107.442167
 20
73.561
  0
LWPOLYLINE
  5
53
330
1F
100
AcDbEntity
  8
0
100
AcDbPolyline
 90
        2
 70
   128
 43
0.0
 10
107.442167
 20
73.561
 10
106.9765
 20
73.349333
  0
LWPOLYLINE
  5
54
330
1F
100
AcDbEntity
  8
0
100
AcDbPolyline
 90
        2
 70
   128
 43
0.0
 10
106.9765
 20
73.349333
 10
106.637833
 20
73.010667
  0
LWPOLYLINE
  5
55
330
1F
100
AcDbEntity
  8
0
100
AcDbPolyline
 90
        2
 70
   128
 43
0.0
 10
106.637833
 20
73.010667
 10
106.426167
 20
72.545
  0
LWPOLYLINE
  5
56
330
1F
100
AcDbEntity
  8
0
100
AcDbPolyline
 90
        2
 70
   128
 43
0.0
 10
106.426167
 20
72.545
 10
106.3415
 20
72.079333
  0
LWPOLYLINE
  5
57
330
1F
100
AcDbEntity
  8
0
100
AcDbPolyline
 90
        2
 70
   128
 43
0.0
 10
106.3415
 20
72.079333
 10
106.426167
 20
71.571333
  0
LWPOLYLINE
  5
58
330
1F
100
AcDbEntity
  8
0
100
AcDbPolyline
 90
        2
 70
   128
 43
0.0
 10
106.426167
 20
71.571333
 10
106.637833
 20
71.148
  0
LWPOLYLINE
  5
59
330
1F
100
AcDbEntity
  8
0
100
AcDbPolyline
 90
        2
 70
   128
 43
0.0
 10
106.637833
 20
71.148
 10
106.9765
 20
70.767
  0
LWPOLYLINE
  5
5A
330
1F
100
AcDbEntity
  8
0
100
AcDbPolyline
 90
        2
 70
   128
 43
0.0
 10
106.9765
 20
70.767
 10
107.442167
 20
70.555333
  0
LWPOLYLINE
  5
5B
330
1F
100
AcDbEntity
  8
0
100
AcDbPolyline
 90
        2
 70
   128
 43
0.0
 10
107.442167
 20
70.555333
 10
107.907833
 20
70.470667
  0
LWPOLYLINE
  5
5C
330
1F
100
AcDbEntity
  8
0
100
AcDbPolyline
 90
        2
 70
   128
 43
0.0
 10
107.907833
 20
70.470667
 10
108.415833
 20
70.555333
  0
LWPOLYLINE
  5
5D
330
1F
100
AcDbEntity
  8
0
100
AcDbPolyline
 90
        2
 70
   128
 43
0.0
 10
108.415833
 20
70.555333
 10
108.839167
 20
70.767
  0
LWPOLYLINE
  5
5E
330
1F
100
AcDbEntity
  8
0
100
AcDbPolyline
 90
        2
 70
   128
 43
0.0
 10
108.839167
 20
70.767
 10
109.220167
 20
71.148
  0
LWPOLYLINE
  5
5F
330
1F
100
AcDbEntity
  8
0
100
AcDbPolyline
 90
        2
 70
   128
 43
0.0
 10
109.220167
 20
71.148
 10
109.431833
 20
71.571333
  0
LWPOLYLINE
  5
60
330
1F
100
AcDbEntity
  8
0
100
AcDbPolyline
 90
        2
 70
   128
 43
0.0
 10
109.431833
 20
71.571333
 10
109.5165
 20
72.079333
  0
LWPOLYLINE
  5
61
330
1F
100
AcDbEntity
  8
0
100
AcDbPolyline
 90
        2
 70
   128
 43
0.0
 10
109.5165
 20
72.079333
 10
109.431833
 20
72.545
  0
LWPOLYLINE
  5
62
330
1F
100
AcDbEntity
  8
0
100
AcDbPolyline
 90
        2
 70
   128
 43
0.0
 10
109.431833
 20
72.545
 10
109.220167
 20
73.010667
  0
LWPOLYLINE
  5
63
330
1F
100
AcDbEntity
  8
0
100
AcDbPolyline
 90
        2
 70
   128
 43
0.0
 10
109.220167
 20
73.010667
 10
108.839167
 20
73.349333
  0
LWPOLYLINE
  5
64
330
1F
100
AcDbEntity
  8
0
100
AcDbPolyline
 90
        2
 70
   128
 43
0.0
 10
108.839167
 20
73.349333
 10
108.415833
 20
73.561
  0
LWPOLYLINE
  5
65
330
1F
100
AcDbEntity
  8
0
100
AcDbPolyline
 90
        2
 70
   128
 43
0.0
 10
108.415833
 20
73.561
 10
107.907833
 20
73.645667
  0
LWPOLYLINE
  5
66
330
1F
100
AcDbEntity
  8
0
100
AcDbPolyline
 90
        2
 70
   128
 43
0.0
 10
107.907833
 20
133.895333
 10
107.442167
 20
133.810667
  0
LWPOLYLINE
  5
67
330
1F
100
AcDbEntity
  8
0
100
AcDbPolyline
 90
        2
 70
   128
 43
0.0
 10
107.442167
 20
133.810667
 10
106.9765
 20
133.599
  0
LWPOLYLINE
  5
68
330
1F
100
AcDbEntity
  8
0
100
AcDbPolyline
 90
        2
 70
   128
 43
0.0
 10
106.9765
 20
133.599
 10
106.637833
 20
133.218
  0
LWPOLYLINE
  5
69
330
1F
100
AcDbEntity
  8
0
100
AcDbPolyline
 90
        2
 70
   128
 43
0.0
 10
106.637833
 20
133.218
 10
106.426167
 20
132.794667
  0
LWPOLYLINE
  5
6A
330
1F
100
AcDbEntity
  8
0
100
AcDbPolyline
 90
        2
 70
   128
 43
0.0
 10
106.426167
 20
132.794667
 10
106.3415
 20
132.286667
  0
LWPOLYLINE
  5
6B
330
1F
100
AcDbEntity
  8
0
100
AcDbPolyline
 90
        2
 70
   128
 43
0.0
 10
106.3415
 20
132.286667
 10
106.426167
 20
131.821
  0
LWPOLYLINE
  5
6C
330
1F
100
AcDbEntity
  8
0
100
AcDbPolyline
 90
        2
 70
   128
 43
0.0
 10
106.426167
 20
131.821
 10
106.637833
 20
131.355333
  0
LWPOLYLINE
  5
6D
330
1F
100
AcDbEntity
  8
0
100
AcDbPolyline
 90
        2
 70
   128
 43
0.0
 10
106.637833
 20
131.355333
 10
106.9765
 20
131.016667
  0
LWPOLYLINE
  5
6E
330
1F
100
AcDbEntity
  8
0
100
AcDbPolyline
 90
        2
 70
   128
 43
0.0
 10
106.9765
 20
131.016667
 10
107.442167
 20
130.805
  0
LWPOLYLINE
  5
6F
330
1F
100
AcDbEntity
  8
0
100
AcDbPolyline
 90
        2
 70
   128
 43
0.0
 10
107.442167
 20
130.805
 10
107.907833
 20
130.720333
  0
LWPOLYLINE
  5
70
330
1F
100
AcDbEntity
  8
0
100
AcDbPolyline
 90
        2
 70
   128
 43
0.0
 10
107.907833
 20
130.720333
 10
108.415833
 20
130.805
  0
LWPOLYLINE
  5
71
330
1F
100
AcDbEntity
  8
0
100
AcDbPolyline
 90
        2
 70
   128
 43
0.0
 10
108.415833
 20
130.805
 10
108.839167
 20
131.016667
  0
LWPOLYLINE
  5
72
330
1F
100
AcDbEntity
  8
0
100
AcDbPolyline
 90
        2
 70
   128
 43
0.0
 10
108.839167
 20
131.016667
 10
109.220167
 20
131.355333
  0
LWPOLYLINE
  5
73
330
1F
100
AcDbEntity
  8
0
100
AcDbPolyline
 90
        2
 70
   128
 43
0.0
 10
109.220167
 20
131.355333
 10
109.431833
 20
131.821
  0
LWPOLYLINE
  5
74
330
1F
100
AcDbEntity
  8
0
100
AcDbPolyline
 90
        2
 70
   128
 43
0.0
 10
109.431833
 20
131.821
 10
109.5165
 20
132.286667
  0
LWPOLYLINE
  5
75
330
1F
100
AcDbEntity
  8
0
100
AcDbPolyline
 90
        2
 70
   128
 43
0.0
 10
109.5165
 20
132.286667
 10
109.431833
 20
132.794667
  0
LWPOLYLINE
  5
76
330
1F
100
AcDbEntity
  8
0
100
AcDbPolyline
 90
        2
 70
   128
 43
0.0
 10
109.431833
 20
132.794667
 10
109.220167
 20
133.218
  0
LWPOLYLINE
  5
77
330
1F
100
AcDbEntity
  8
0
100
AcDbPolyline
 90
        2
 70
   128
 43
0.0
 10
109.220167
 20
133.218
 10
108.839167
 20
133.599
  0
LWPOLYLINE
  5
78
330
1F
100
AcDbEntity
  8
0
100
AcDbPolyline
 90
        2
 70
   128
 43
0.0
 10
108.839167
 20
133.599
 10
108.415833
 20
133.810667
  0
LWPOLYLINE
  5
79
330
1F
100
AcDbEntity
  8
0
100
AcDbPolyline
 90
        2
 70
   128
 43
0.0
 10
108.415833
 20
133.810667
 10
107.907833
 20
133.895333
  0
LWPOLYLINE
  5
7A
330
1F
100
AcDbEntity
  8
0
100
AcDbPolyline
 90
        2
 70
   128
 43
0.0
 10
145.124991
 20
133.895333
 10
144.616991
 20
133.810667
  0
LWPOLYLINE
  5
7B
330
1F
100
AcDbEntity
  8
0
100
AcDbPolyline
 90
        2
 70
   128
 43
0.0
 10
144.616991
 20
133.810667
 10
144.193658
 20
133.599
  0
LWPOLYLINE
  5
7C
330
1F
100
AcDbEntity
  8
0
100
AcDbPolyline
 90
        2
 70
   128
 43
0.0
 10
144.193658
 20
133.599
 10
143.854991
 20
133.218
  0
LWPOLYLINE
  5
7D
330
1F
100
AcDbEntity
  8
0
100
AcDbPolyline
 90
        2
 70
   128
 43
0.0
 10
143.854991
 20
133.218
 10
143.600991
 20
132.794667
  0
LWPOLYLINE
  5
7E
330
1F
100
AcDbEntity
  8
0
100
AcDbPolyline
 90
        2
 70
   128
 43
0.0
 10
143.600991
 20
132.794667
 10
143.516325
 20
132.286667
  0
LWPOLYLINE
  5
7F
330
1F
100
AcDbEntity
  8
0
100
AcDbPolyline
 90
        2
 70
   128
 43
0.0
 10
143.516325
 20
132.286667
 10
143.600991
 20
131.821
  0
LWPOLYLINE
  5
80
330
1F
100
AcDbEntity
  8
0
100
AcDbPolyline
 90
        2
 70
   128
 43
0.0
 10
143.600991
 20
131.821
 10
143.854991
 20
131.355333
  0
LWPOLYLINE
  5
81
330
1F
100
AcDbEntity
  8
0
100
AcDbPolyline
 90
        2
 70
   128
 43
0.0
 10
143.854991
 20
131.355333
 10
144.193658
 20
131.016667
  0
LWPOLYLINE
  5
82
330
1F
100
AcDbEntity
  8
0
100
AcDbPolyline
 90
        2
 70
   128
 43
0.0
 10
144.193658
 20
131.016667
 10
144.616991
 20
130.805
  0
LWPOLYLINE
  5
83
330
1F
100
AcDbEntity
  8
0
100
AcDbPolyline
 90
        2
 70
   128
 43
0.0
 10
144.616991
 20
130.805
 10
145.124991
 20
130.720333
  0
LWPOLYLINE
  5
84
330
1F
100
AcDbEntity
  8
0
100
AcDbPolyline
 90
        2
 70
   128
 43
0.0
 10
145.124991
 20
130.720333
 10
145.632991
 20
130.805
  0
LWPOLYLINE
  5
85
330
1F
100
AcDbEntity
  8
0
100
AcDbPolyline
 90
        2
 70
   128
 43
0.0
 10
145.632991
 20
130.805
 10
146.056325
 20
131.016667
  0
LWPOLYLINE
  5
86
330
1F
100
AcDbEntity
  8
0
100
AcDbPolyline
 90
        2
 70
   128
 43
0.0
 10
146.056325
 20
131.016667
 10
146.394991
 20
131.355333
  0
LWPOLYLINE
  5
87
330
1F
100
AcDbEntity
  8
0
100
AcDbPolyline
 90
        2
 70
   128
 43
0.0
 10
146.394991
 20
131.355333
 10
146.648991
 20
131.821
  0
LWPOLYLINE
  5
88
330
1F
100
AcDbEntity
  8
0
100
AcDbPolyline
 90
        2
 70
   128
 43
0.0
 10
146.648991
 20
131.821
 10
146.691325
 20
132.286667
  0
LWPOLYLINE
  5
89
330
1F
100
AcDbEntity
  8
0
100
AcDbPolyline
 90
        2
 70
   128
 43
0.0
 10
146.691325
 20
132.286667
 10
146.648991
 20
132.794667
  0
LWPOLYLINE
  5
8A
330
1F
100
AcDbEntity
  8
0
100
AcDbPolyline
 90
        2
 70
   128
 43
0.0
 10
146.648991
 20
132.794667
 10
146.394991
 20
133.218
  0
LWPOLYLINE
  5
8B
330
1F
100
AcDbEntity
  8
0
100
AcDbPolyline
 90
        2
 70
   128
 43
0.0
 10
146.394991
 20
133.218
 10
146.056325
 20
133.599
  0
LWPOLYLINE
  5
8C
330
1F
100
AcDbEntity
  8
0
100
AcDbPolyline
 90
        2
 70
   128
 43
0.0
 10
146.056325
 20
133.599
 10
145.632991
 20
133.810667
  0
LWPOLYLINE
  5
8D
330
1F
100
AcDbEntity
  8
0
100
AcDbPolyline
 90
        2
 70
   128
 43
0.0
 10
145.632991
 20
133.810667
 10
145.124991
 20
133.895333
  0
LWPOLYLINE
  5
8E
330
1F
100
AcDbEntity
  8
0
100
AcDbPolyline
 90
        2
 70
   128
 43
0.0
 10
145.124991
 20
73.645667
 10
144.616991
 20
73.561
  0
LWPOLYLINE
  5
8F
330
1F
100
AcDbEntity
  8
0
100
AcDbPolyline
 90
        2
 70
   128
 43
0.0
 10
144.616991
 20
73.561
 10
144.193658
 20
73.349333
  0
LWPOLYLINE
  5
90
330
1F
100
AcDbEntity
  8
0
100
AcDbPolyline
 90
        2
 70
   128
 43
0.0
 10
144.193658
 20
73.349333
 10
143.854991
 20
73.010667
  0
LWPOLYLINE
  5
91
330
1F
100
AcDbEntity
  8
0
100
AcDbPolyline
 90
        2
 70
   128
 43
0.0
 10
143.854991
 20
73.010667
 10
143.600991
 20
72.545
  0
LWPOLYLINE
  5
92
330
1F
100
AcDbEntity
  8
0
100
AcDbPolyline
 90
        2
 70
   128
 43
0.0
 10
143.600991
 20
72.545
 10
143.516325
 20
72.079333
  0
LWPOLYLINE
  5
93
330
1F
100
AcDbEntity
  8
0
100
AcDbPolyline
 90
        2
 70
   128
 43
0.0
 10
143.516325
 20
72.079333
 10
143.600991
 20
71.571333
  0
LWPOLYLINE
  5
94
330
1F
100
AcDbEntity
  8
0
100
AcDbPolyline
 90
        2
 70
   128
 43
0.0
 10
143.600991
 20
71.571333
 10
143.854991
 20
71.148
  0
LWPOLYLINE
  5
95
330
1F
100
AcDbEntity
  8
0
100
AcDbPolyline
 90
        2
 70
   128
 43
0.0
 10
143.854991
 20
71.148
 10
144.193658
 20
70.767
  0
LWPOLYLINE
  5
96
330
1F
100
AcDbEntity
  8
0
100
AcDbPolyline
 90
        2
 70
   128
 43
0.0
 10
144.193658
 20
70.767
 10
144.616991
 20
70.555333
  0
LWPOLYLINE
  5
97
330
1F
100
AcDbEntity
  8
0
100
AcDbPolyline
 90
        2
 70
   128
 43
0.0
 10
144.616991
 20
70.555333
 10
145.124991
 20
70.470667
  0
LWPOLYLINE
  5
98
330
1F
100
AcDbEntity
  8
0
100
AcDbPolyline
 90
        2
 70
   128
 43
0.0
 10
145.124991
 20
70.470667
 10
145.632991
 20
70.555333
  0
LWPOLYLINE
  5
99
330
1F
100
AcDbEntity
  8
0
100
AcDbPolyline
 90
        2
 70
   128
 43
0.0
 10
145.632991
 20
70.555333
 10
146.056325
 20
70.767
  0
LWPOLYLINE
  5
9A
330
1F
100
AcDbEntity
  8
0
100
AcDbPolyline
 90
        2
 70
   128
 43
0.0
 10
146.056325
 20
70.767
 10
146.394991
 20
71.148
  0
LWPOLYLINE
  5
9B
330
1F
100
AcDbEntity
  8
0
100
AcDbPolyline
 90
        2
 70
   128
 43
0.0
 10
146.394991
 20
71.148
 10
146.648991
 20
71.571333
  0
LWPOLYLINE
  5
9C
330
1F
100
AcDbEntity
  8
0
100
AcDbPolyline
 90
        2
 70
   128
 43
0.0
 10
146.648991
 20
71.571333
 10
146.691325
 20
72.079333
  0
LWPOLYLINE
  5
9D
330
1F
100
AcDbEntity
  8
0
100
AcDbPolyline
 90
        2
 70
   128
 43
0.0
 10
146.691325
 20
72.079333
 10
146.648991
 20
72.545
  0
LWPOLYLINE
  5
9E
330
1F
100
AcDbEntity
  8
0
100
AcDbPolyline
 90
        2
 70
   128
 43
0.0
 10
146.648991
 20
72.545
 10
146.394991
 20
73.010667
  0
LWPOLYLINE
  5
9F
330
1F
100
AcDbEntity
  8
0
100
AcDbPolyline
 90
        2
 70
   128
 43
0.0
 10
146.394991
 20
73.010667
 10
146.056325
 20
73.349333
  0
LWPOLYLINE
  5
A0
330
1F
100
AcDbEntity
  8
0
100
AcDbPolyline
 90
        2
 70
   128
 43
0.0
 10
146.056325
 20
73.349333
 10
145.632991
 20
73.561
  0
LWPOLYLINE
  5
A1
330
1F
100
AcDbEntity
  8
0
100
AcDbPolyline
 90
        2
 70
   128
 43
0.0
 10
145.632991
 20
73.561
 10
145.124991
 20
73.645667
  0
LWPOLYLINE
  5
A2
330
1F
100
AcDbEntity
  8
0
100
AcDbPolyline
 90
        2
 70
   128
 43
0.0
 10
49.3185
 20
69.666333
 10
49.657167
 20
68.904333
  0
LWPOLYLINE
  5
A3
330
1F
100
AcDbEntity
  8
0
100
AcDbPolyline
 90
        2
 70
   128
 43
0.0
 10
49.657167
 20
68.904333
 10
50.165167
 20
68.227
  0
LWPOLYLINE
  5
A4
330
1F
100
AcDbEntity
  8
0
100
AcDbPolyline
 90
        2
 70
   128
 43
0.0
 10
50.165167
 20
68.227
 10
50.800167
 20
67.719
  0
LWPOLYLINE
  5
A5
330
1F
100
AcDbEntity
  8
0
100
AcDbPolyline
 90
        2
 70
   128
 43
0.0
 10
50.800167
 20
67.719
 10
51.562167
 20
67.422667
  0
LWPOLYLINE
  5
A6
330
1F
100
AcDbEntity
  8
0
100
AcDbPolyline
 90
        2
 70
   128
 43
0.0
 10
51.562167
 20
67.422667
 10
52.408833
 20
67.295667
  0
LWPOLYLINE
  5
A7
330
1F
100
AcDbEntity
  8
0
100
AcDbPolyline
 90
        2
 70
   128
 43
0.0
 10
52.408833
 20
137.070333
 10
51.562167
 20
136.985667
  0
LWPOLYLINE
  5
A8
330
1F
100
AcDbEntity
  8
0
100
AcDbPolyline
 90
        2
 70
   128
 43
0.0
 10
51.562167
 20
136.985667
 10
50.800167
 20
136.647
  0
LWPOLYLINE
  5
A9
330
1F
100
AcDbEntity
  8
0
100
AcDbPolyline
 90
        2
 70
   128
 43
0.0
 10
50.800167
 20
136.647
 10
50.165167
 20
136.139
  0
LWPOLYLINE
  5
AA
330
1F
100
AcDbEntity
  8
0
100
AcDbPolyline
 90
        2
 70
   128
 43
0.0
 10
50.165167
 20
136.139
 10
49.657167
 20
135.504
  0
LWPOLYLINE
  5
AB
330
1F
100
AcDbEntity
  8
0
100
AcDbPolyline
 90
        2
 70
   128
 43
0.0
 10
49.657167
 20
135.504
 10
49.3185
 20
134.699667
  0
LWPOLYLINE
  5
AC
330
1F
100
AcDbEntity
  8
0
100
AcDbPolyline
 90
        2
 70
   128
 43
0.0
 10
163.449167
 20
137.070333
 10
52.408833
 20
137.070333
  0
LWPOLYLINE
  5
AD
330
1F
100
AcDbEntity
  8
0
100
AcDbPolyline
 90
        2
 70
   128
 43
0.0
 10
166.5395
 20
134.699667
 10
166.200833
 20
135.504
  0
LWPOLYLINE
  5
AE
330
1F
100
AcDbEntity
  8
0
100
AcDbPolyline
 90
        2
 70
   128
 43
0.0
 10
166.200833
 20
135.504
 10
165.692833
 20
136.139
  0
LWPOLYLINE
  5
AF
330
1F
100
AcDbEntity
  8
0
100
AcDbPolyline
 90
        2
 70
   128
 43
0.0
 10
165.692833
 20
136.139
 10
165.057833
 20
136.647
  0
LWPOLYLINE
  5
B0
330
1F
100
AcDbEntity
  8
0
100
AcDbPolyline
 90
        2
 70
   128
 43
0.0
 10
165.057833
 20
136.647
 10
164.295833
 20
136.985667
  0
LWPOLYLINE
  5
B1
330
1F
100
AcDbEntity
  8
0
100
AcDbPolyline
 90
        2
 70
   128
 43
0.0
 10
164.295833
 20
136.985667
 10
163.449167
 20
137.070333
  0
LWPOLYLINE
  5
B2
330
1F
100
AcDbEntity
  8
0
100
AcDbPolyline
 90
        2
 70
   128
 43
0.0
 10
163.449167
 20
67.295667
 10
52.408833
 20
67.295667
  0
LWPOLYLINE
  5
B3
330
1F
100
AcDbEntity
  8
0
100
AcDbPolyline
 90
        2
 70
   128
 43
0.0
 10
163.449167
 20
67.295667
 10
164.295833
 20
67.422667
  0
LWPOLYLINE
  5
B4
330
1F
100
AcDbEntity
  8
0
100
AcDbPolyline
 90
        2
 70
   128
 43
0.0
 10
164.295833
 20
67.422667
 10
165.057833
 20
67.719
  0
LWPOLYLINE
  5
B5
330
1F
100
AcDbEntity
  8
0
100
AcDbPolyline
 90
        2
 70
   128
 43
0.0
 10
165.057833
 20
67.719
 10
165.692833
 20
68.227
  0
LWPOLYLINE
  5
B6
330
1F
100
AcDbEntity
  8
0
100
AcDbPolyline
 90
        2
 70
   128
 43
0.0
 10
165.692833
 20
68.227
 10
166.200833
 20
68.904333
  0
LWPOLYLINE
  5
B7
330
1F
100
AcDbEntity
  8
0
100
AcDbPolyline
 90
        2
 70
   128
 43
0.0
 10
166.200833
 20
68.904333
 10
166.5395
 20
69.666333
  0
LWPOLYLINE
  5
B8
330
1F
100
AcDbEntity
  8
0
100
AcDbPolyline
 90
        2
 70
   128
 43
0.0
 10
63.979327
 20
112.116822
 10
63.471327
 20
112.032155
  0
LWPOLYLINE
  5
B9
330
1F
100
AcDbEntity
  8
0
100
AcDbPolyline
 90
        2
 70
   128
 43
0.0
 10
63.471327
 20
112.032155
 10
63.047993
 20
111.820488
  0
LWPOLYLINE
  5
BA
330
1F
100
AcDbEntity
  8
0
100
AcDbPolyline
 90
        2
 70
   128
 43
0.0
 10
63.047993
 20
111.820488
 10
62.709327
 20
111.439488
  0
LWPOLYLINE
  5
BB
330
1F
100
AcDbEntity
  8
0
100
AcDbPolyline
 90
        2
 70
   128
 43
0.0
 10
62.709327
 20
111.439488
 10
62.455327
 20
111.016155
  0
LWPOLYLINE
  5
BC
330
1F
100
AcDbEntity
  8
0
100
AcDbPolyline
 90
        2
 70
   128
 43
0.0
 10
62.455327
 20
111.016155
 10
62.37066
 20
110.508155
  0
LWPOLYLINE
  5
BD
330
1F
100
AcDbEntity
  8
0
100
AcDbPolyline
 90
        2
 70
   128
 43
0.0
 10
62.37066
 20
110.508155
 10
62.455327
 20
110.042488
  0
LWPOLYLINE
  5
BE
330
1F
100
AcDbEntity
  8
0
100
AcDbPolyline
 90
        2
 70
   128
 43
0.0
 10
62.455327
 20
110.042488
 10
62.709327
 20
109.576822
  0
LWPOLYLINE
  5
BF
330
1F
100
AcDbEntity
  8
0
100
AcDbPolyline
 90
        2
 70
   128
 43
0.0
 10
62.709327
 20
109.576822
 10
63.047993
 20
109.238155
  0
LWPOLYLINE
  5
C0
330
1F
100
AcDbEntity
  8
0
100
AcDbPolyline
 90
        2
 70
   128
 43
0.0
 10
63.047993
 20
109.238155
 10
63.471327
 20
109.026488
  0
LWPOLYLINE
  5
C1
330
1F
100
AcDbEntity
  8
0
100
AcDbPolyline
 90
        2
 70
   128
 43
0.0
 10
63.471327
 20
109.026488
 10
63.979327
 20
108.941822
  0
LWPOLYLINE
  5
C2
330
1F
100
AcDbEntity
  8
0
100
AcDbPolyline
 90
        2
 70
   128
 43
0.0
 10
63.979327
 20
108.941822
 10
64.487327
 20
109.026488
  0
LWPOLYLINE
  5
C3
330
1F
100
AcDbEntity
  8
0
100
AcDbPolyline
 90
        2
 70
   128
 43
0.0
 10
64.487327
 20
109.026488
 10
64.91066
 20
109.238155
  0
LWPOLYLINE
  5
C4
330
1F
100
AcDbEntity
  8
0
100
AcDbPolyline
 90
        2
 70
   128
 43
0.0
 10
64.91066
 20
109.238155
 10
65.249327
 20
109.576822
  0
LWPOLYLINE
  5
C5
330
1F
100
AcDbEntity
  8
0
100
AcDbPolyline
 90
        2
 70
   128
 43
0.0
 10
65.249327
 20
109.576822
 10
65.503327
 20
110.042488
  0
LWPOLYLINE
  5
C6
330
1F
100
AcDbEntity
  8
0
100
AcDbPolyline
 90
        2
 70
   128
 43
0.0
 10
65.503327
 20
110.042488
 10
65.54566
 20
110.508155
  0
LWPOLYLINE
  5
C7
330
1F
100
AcDbEntity
  8
0
100
AcDbPolyline
 90
        2
 70
   128
 43
0.0
 10
65.54566
 20
110.508155
 10
65.503327
 20
111.016155
  0
LWPOLYLINE
  5
C8
330
1F
100
AcDbEntity
  8
0
100
AcDbPolyline
 90
        2
 70
   128
 43
0.0
 10
65.503327
 20
111.016155
 10
65.249327
 20
111.439488
  0
LWPOLYLINE
  5
C9
330
1F
100
AcDbEntity
  8
0
100
AcDbPolyline
 90
        2
 70
   128
 43
0.0
 10
65.249327
 20
111.439488
 10
64.91066
 20
111.820488
  0
LWPOLYLINE
  5
CA
330
1F
100
AcDbEntity
  8
0
100
AcDbPolyline
 90
        2
 70
   128
 43
0.0
 10
64.91066
 20
111.820488
 10
64.487327
 20
112.032155
  0
LWPOLYLINE
  5
CB
330
1F
100
AcDbEntity
  8
0
100
AcDbPolyline
 90
        2
 70
   128
 43
0.0
 10
64.487327
 20
112.032155
 10
63.979327
 20
112.116822
  0
LWPOLYLINE
  5
CC
330
1F
100
AcDbEntity
  8
0
100
AcDbPolyline
 90
        2
 70
   128
 43
0.0
 10
76.810736
 20
95.347485
 10
76.302736
 20
95.262818
  0
LWPOLYLINE
  5
CD
330
1F
100
AcDbEntity
  8
0
100
AcDbPolyline
 90
        2
 70
   128
 43
0.0
 10
76.302736
 20
95.262818
 10
75.879403
 20
95.051152
  0
LWPOLYLINE
  5
CE
330
1F
100
AcDbEntity
  8
0
100
AcDbPolyline
 90
        2
 70
   128
 43
0.0
 10
75.879403
 20
95.051152
 10
75.540736
 20
94.670152
  0
LWPOLYLINE
  5
CF
330
1F
100
AcDbEntity
  8
0
100
AcDbPolyline
 90
        2
 70
   128
 43
0.0
 10
75.540736
 20
94.670152
 10
75.286736
 20
94.246818
  0
LWPOLYLINE
  5
D0
330
1F
100
AcDbEntity
  8
0
100
AcDbPolyline
 90
        2
 70
   128
 43
0.0
 10
75.286736
 20
94.246818
 10
75.20207
 20
93.738818
  0
LWPOLYLINE
  5
D1
330
1F
100
AcDbEntity
  8
0
100
AcDbPolyline
 90
        2
 70
   128
 43
0.0
 10
75.20207
 20
93.738818
 10
75.286736
 20
93.273152
  0
LWPOLYLINE
  5
D2
330
1F
100
AcDbEntity
  8
0
100
AcDbPolyline
 90
        2
 70
   128
 43
0.0
 10
75.286736
 20
93.273152
 10
75.540736
 20
92.807485
  0
LWPOLYLINE
  5
D3
330
1F
100
AcDbEntity
  8
0
100
AcDbPolyline
 90
        2
 70
   128
 43
0.0
 10
75.540736
 20
92.807485
 10
75.879403
 20
92.468818
  0
LWPOLYLINE
  5
D4
330
1F
100
AcDbEntity
  8
0
100
AcDbPolyline
 90
        2
 70
   128
 43
0.0
 10
75.879403
 20
92.468818
 10
76.302736
 20
92.257152
  0
LWPOLYLINE
  5
D5
330
1F
100
AcDbEntity
  8
0
100
AcDbPolyline
 90
        2
 70
   128
 43
0.0
 10
76.302736
 20
92.257152
 10
76.810736
 20
92.172485
  0
LWPOLYLINE
  5
D6
330
1F
100
AcDbEntity
  8
0
100
AcDbPolyline
 90
        2
 70
   128
 43
0.0
 10
76.810736
 20
92.172485
 10
77.318736
 20
92.257152
  0
LWPOLYLINE
  5
D7
330
1F
100
AcDbEntity
  8
0
100
AcDbPolyline
 90
        2
 70
   128
 43
0.0
 10
77.318736
 20
92.257152
 10
77.74207
 20
92.468818
  0
LWPOLYLINE
  5
D8
330
1F
100
AcDbEntity
  8
0
100
AcDbPolyline
 90
        2
 70
   128
 43
0.0
 10
77.74207
 20
92.468818
 10
78.080736
 20
92.807485
  0
LWPOLYLINE
  5
D9
330
1F
100
AcDbEntity
  8
0
100
AcDbPolyline
 90
        2
 70
   128
 43
0.0
 10
78.080736
 20
92.807485
 10
78.334736
 20
93.273152
  0
LWPOLYLINE
  5
DA
330
1F
100
AcDbEntity
  8
0
100
AcDbPolyline
 90
        2
 70
   128
 43
0.0
 10
78.334736
 20
93.273152
 10
78.37707
 20
93.738818
  0
LWPOLYLINE
  5
DB
330
1F
100
AcDbEntity
  8
0
100
AcDbPolyline
 90
        2
 70
   128
 43
0.0
 10
78.37707
 20
93.738818
 10
78.334736
 20
94.246818
  0
LWPOLYLINE
  5
DC
330
1F
100
AcDbEntity
  8
0
100
AcDbPolyline
 90
        2
 70
   128
 43
0.0
 10
78.334736
 20
94.246818
 10
78.080736
 20
94.670152
  0
LWPOLYLINE
  5
DD
330
1F
100
AcDbEntity
  8
0
100
AcDbPolyline
 90
        2
 70
   128
 43
0.0
 10
78.080736
 20
94.670152
 10
77.74207
 20
95.051152
  0
LWPOLYLINE
  5
DE
330
1F
100
AcDbEntity
  8
0
100
AcDbPolyline
 90
        2
 70
   128
 43
0.0
 10
77.74207
 20
95.051152
 10
77.318736
 20
95.262818
  0
LWPOLYLINE
  5
DF
330
1F
100
AcDbEntity
  8
0
100
AcDbPolyline
 90
        2
 70
   128
 43
0.0
 10
77.318736
 20
95.262818
 10
76.810736
 20
95.347485
  0
LWPOLYLINE
  5
E0
330
1F
100
AcDbEntity
  8
0
100
AcDbPolyline
 90
        7
 70
   128
 43
0.0
 10
55.06795
 20
80.611343
 42
0.414214
 10
55.06795
 20
82.025557
 42
0.414214
 10
53.653736
 20
82.025558
 10
52.946629
 20
81.31845
 42
0.414214
 10
52.946629
 20
79.904237
 42
0.414214
 10
54.360843
 20
79.904237
 10
55.067955
 20
80.611355
  0
LWPOLYLINE
  5
E1
330
1F
100
AcDbEntity
  8
0
100
AcDbPolyline
 90
        7
 70
   128
 43
0.0
 10
53.660475
 20
122.339881
 42
0.414214
 10
55.074688
 20
122.339881
 42
0.414214
 10
55.07469
 20
123.754094
 10
54.367582
 20
124.461201
 42
0.414214
 10
52.953368
 20
124.461201
 42
0.414214
 10
52.953368
 20
123.046988
 10
53.660487
 20
122.339875
  0
LWPOLYLINE
  5
E2
330
1F
100
AcDbEntity
  8
0
100
AcDbPolyline
 90
        7
 70
   128
 43
0.0
 10
162.199103
 20
82.02788
 42
0.414214
 10
160.78489
 20
82.02788
 42
0.414214
 10
160.784888
 20
80.613667
 10
161.491996
 20
79.90656
 42
0.414214
 10
162.90621
 20
79.90656
 42
0.414214
 10
162.90621
 20
81.320774
 10
162.199091
 20
82.027886
  0
LWPOLYLINE
  5
E3
330
1F
100
AcDbEntity
  8
0
100
AcDbPolyline
 90
        7
 70
   128
 43
0.0
 10
160.782092
 20
123.752251
 42
0.414214
 10
160.782092
 20
122.338037
 42
0.414214
 10
162.196306
 20
122.338036
 10
162.903413
 20
123.045144
 42
0.414214
 10
162.903413
 20
124.459358
 42
0.414214
 10
161.489199
 20
124.459358
 10
160.782087
 20
123.752239
  0
LWPOLYLINE
  5
E4
330
1F
100
AcDbEntity
  8
0
100
AcDbPolyline
 90
        2
 70
   128
 43
0.0
 10
104.035998
 20
111.906123
 10
103.527998
 20
111.821456
  0
LWPOLYLINE
  5
E5
330
1F
100
AcDbEntity
  8
0
100
AcDbPolyline
 90
        2
 70
   128
 43
0.0
 10
103.527998
 20
111.821456
 10
103.104665
 20
111.60979
  0
LWPOLYLINE
  5
E6
330
1F
100
AcDbEntity
  8
0
100
AcDbPolyline
 90
        2
 70
   128
 43
0.0
 10
103.104665
 20
111.60979
 10
102.765998
 20
111.22879
  0
LWPOLYLINE
  5
E7
330
1F
100
AcDbEntity
  8
0
100
AcDbPolyline
 90
        2
 70
   128
 43
0.0
 10
102.765998
 20
111.22879
 10
102.511998
 20
110.805456
  0
LWPOLYLINE
  5
E8
330
1F
100
AcDbEntity
  8
0
100
AcDbPolyline
 90
        2
 70
   128
 43
0.0
 10
102.511998
 20
110.805456
 10
102.427332
 20
110.297456
  0
LWPOLYLINE
  5
E9
330
1F
100
AcDbEntity
  8
0
100
AcDbPolyline
 90
        2
 70
   128
 43
0.0
 10
102.427332
 20
110.297456
 10
102.511998
 20
109.83179
  0
LWPOLYLINE
  5
EA
330
1F
100
AcDbEntity
  8
0
100
AcDbPolyline
 90
        2
 70
   128
 43
0.0
 10
102.511998
 20
109.83179
 10
102.765998
 20
109.366123
  0
LWPOLYLINE
  5
EB
330
1F
100
AcDbEntity
  8
0
100
AcDbPolyline
 90
        2
 70
   128
 43
0.0
 10
102.765998
 20
109.366123
 10
103.104665
 20
109.027456
  0
LWPOLYLINE
  5
EC
330
1F
100
AcDbEntity
  8
0
100
AcDbPolyline
 90
        2
 70
   128
 43
0.0
 10
103.104665
 20
109.027456
 10
103.527998
 20
108.81579
  0
LWPOLYLINE
  5
ED
330
1F
100
AcDbEntity
  8
0
100
AcDbPolyline
 90
        2
 70
   128
 43
0.0
 10
103.527998
 20
108.81579
 10
104.035998
 20
108.731123
  0
LWPOLYLINE
  5
EE
330
1F
100
AcDbEntity
  8
0
100
AcDbPolyline
 90
        2
 70
   128
 43
0.0
 10
104.035998
 20
108.731123
 10
104.543998
 20
108.81579
  0
LWPOLYLINE
  5
EF
330
1F
100
AcDbEntity
  8
0
100
AcDbPolyline
 90
        2
 70
   128
 43
0.0
 10
104.543998
 20
108.81579
 10
104.967332
 20
109.027456
  0
LWPOLYLINE
  5
F0
330
1F
100
AcDbEntity
  8
0
100
AcDbPolyline
 90
        2
 70
   128
 43
0.0
 10
104.967332
 20
109.027456
 10
105.305998
 20
109.366123
  0
LWPOLYLINE
  5
F1
330
1F
100
AcDbEntity
  8
0
100
AcDbPolyline
 90
        2
 70
   128
 43
0.0
 10
105.305998
 20
109.366123
 10
105.559998
 20
109.83179
  0
LWPOLYLINE
  5
F2
330
1F
100
AcDbEntity
  8
0
100
AcDbPolyline
 90
        2
 70
   128
 43
0.0
 10
105.559998
 20
109.83179
 10
105.602332
 20
110.297456
  0
LWPOLYLINE
  5
F3
330
1F
100
AcDbEntity
  8
0
100
AcDbPolyline
 90
        2
 70
   128
 43
0.0
 10
105.602332
 20
110.297456
 10
105.559998
 20
110.805456
  0
LWPOLYLINE
  5
F4
330
1F
100
AcDbEntity
  8
0
100
AcDbPolyline
 90
        2
 70
   128
 43
0.0
 10
105.559998
 20
110.805456
 10
105.305998
 20
111.22879
  0
LWPOLYLINE
  5
F5
330
1F
100
AcDbEntity
  8
0
100
AcDbPolyline
 90
        2
 70
   128
 43
0.0
 10
105.305998
 20
111.22879
 10
104.967332
 20
111.60979
  0
LWPOLYLINE
  5
F6
330
1F
100
AcDbEntity
  8
0
100
AcDbPolyline
 90
        2
 70
   128
 43
0.0
 10
104.967332
 20
111.60979
 10
104.543998
 20
111.821456
  0
LWPOLYLINE
  5
F7
330
1F
100
AcDbEntity
  8
0
100
AcDbPolyline
 90
        2
 70
   128
 43
0.0
 10
104.543998
 20
111.821456
 10
104.035998
 20
111.906123
  0
LWPOLYLINE
  5
F8
330
1F
100
AcDbEntity
  8
0
100
AcDbPolyline
 90
        2
 70
   128
 43
0.0
 10
104.065837
 20
94.611233
 10
103.557837
 20
94.526566
  0
LWPOLYLINE
  5
F9
330
1F
100
AcDbEntity
  8
0
100
AcDbPolyline
 90
        2
 70
   128
 43
0.0
 10
103.557837
 20
94.526566
 10
103.134504
 20
94.314899
  0
LWPOLYLINE
  5
FA
330
1F
100
AcDbEntity
  8
0
100
AcDbPolyline
 90
        2
 70
   128
 43
0.0
 10
103.134504
 20
94.314899
 10
102.795837
 20
93.933899
  0
LWPOLYLINE
  5
FB
330
1F
100
AcDbEntity
  8
0
100
AcDbPolyline
 90
        2
 70
   128
 43
0.0
 10
102.795837
 20
93.933899
 10
102.541837
 20
93.510566
  0
LWPOLYLINE
  5
FC
330
1F
100
AcDbEntity
  8
0
100
AcDbPolyline
 90
        2
 70
   128
 43
0.0
 10
102.541837
 20
93.510566
 10
102.45717
 20
93.002566
  0
LWPOLYLINE
  5
FD
330
1F
100
AcDbEntity
  8
0
100
AcDbPolyline
 90
        2
 70
   128
 43
0.0
 10
102.45717
 20
93.002566
 10
102.541837
 20
92.536899
  0
LWPOLYLINE
  5
FE
330
1F
100
AcDbEntity
  8
0
100
AcDbPolyline
 90
        2
 70
   128
 43
0.0
 10
102.541837
 20
92.536899
 10
102.795837
 20
92.071233
  0
LWPOLYLINE
  5
FF
330
1F
100
AcDbEntity
  8
0
100
AcDbPolyline
 90
        2
 70
   128
 43
0.0
 10
102.795837
 20
92.071233
 10
103.134504
 20
91.732566
  0
LWPOLYLINE
  5
100
330
1F
100
AcDbEntity
  8
0
100
AcDbPolyline
 90
        2
 70
   128
 43
0.0
 10
103.134504
 20
91.732566
 10
103.557837
 20
91.520899
  0
LWPOLYLINE
  5
101
330
1F
100
AcDbEntity
  8
0
100
AcDbPolyline
 90
        2
 70
   128
 43
0.0
 10
103.557837
 20
91.520899
 10
104.065837
 20
91.436233
  0
LWPOLYLINE
  5
102
330
1F
100
AcDbEntity
  8
0
100
AcDbPolyline
 90
        2
 70
   128
 43
0.0
 10
104.065837
 20
91.436233
 10
104.573837
 20
91.520899
  0
LWPOLYLINE
  5
103
330
1F
100
AcDbEntity
  8
0
100
AcDbPolyline
 90
        2
 70
   128
 43
0.0
 10
104.573837
 20
91.520899
 10
104.99717
 20
91.732566
  0
LWPOLYLINE
  5
104
330
1F
100
AcDbEntity
  8
0
100
AcDbPolyline
 90
        2
 70
   128
 43
0.0
 10
104.99717
 20
91.732566
 10
105.335837
 20
92.071233
  0
LWPOLYLINE
  5
105
330
1F
100
AcDbEntity
  8
0
100
AcDbPolyline
 90
        2
 70
   128
 43
0.0
 10
105.335837
 20
92.071233
 10
105.589837
 20
92.536899
  0
LWPOLYLINE
  5
106
330
1F
100
AcDbEntity
  8
0
100
AcDbPolyline
 90
        2
 70
   128
 43
0.0
 10
105.589837
 20
92.536899
 10
105.63217
 20
93.002566
  0
LWPOLYLINE
  5
107
330
1F
100
AcDbEntity
  8
0
100
AcDbPolyline
 90
        2
 70
   128
 43
0.0
 10
105.63217
 20
93.002566
 10
105.589837
 20
93.510566
  0
LWPOLYLINE
  5
108
330
1F
100
AcDbEntity
  8
0
100
AcDbPolyline
 90
        2
 70
   128
 43
0.0
 10
105.589837
 20
93.510566
 10
105.335837
 20
93.933899
  0
LWPOLYLINE
  5
109
330
1F
100
AcDbEntity
  8
0
100
AcDbPolyline
 90
        2
 70
   128
 43
0.0
 10
105.335837
 20
93.933899
 10
104.99717
 20
94.314899
  0
LWPOLYLINE
  5
10A
330
1F
100
AcDbEntity
  8
0
100
AcDbPolyline
 90
        2
 70
   128
 43
0.0
 10
104.99717
 20
94.314899
 10
104.573837
 20
94.526566
  0
LWPOLYLINE
  5
10B
330
1F
100
AcDbEntity
  8
0
100
AcDbPolyline
 90
        2
 70
   128
 43
0.0
 10
104.573837
 20
94.526566
 10
104.065837
 20
94.611233
  0
LWPOLYLINE
  5
10C
330
1F
100
AcDbEntity
  8
0
100
AcDbPolyline
 90
        2
 70
   128
 43
0.0
 10
152.505079
 20
91.532076
 10
151.997079
 20
91.44741
  0
LWPOLYLINE
  5
10D
330
1F
100
AcDbEntity
  8
0
100
AcDbPolyline
 90
        2
 70
   128
 43
0.0
 10
151.997079
 20
91.44741
 10
151.573746
 20
91.235743
  0
LWPOLYLINE
  5
10E
330
1F
100
AcDbEntity
  8
0
100
AcDbPolyline
 90
        2
 70
   128
 43
0.0
 10
151.573746
 20
91.235743
 10
151.235079
 20
90.854743
  0
LWPOLYLINE
  5
10F
330
1F
100
AcDbEntity
  8
0
100
AcDbPolyline
 90
        2
 70
   128
 43
0.0
 10
151.235079
 20
90.854743
 10
150.981079
 20
90.43141
  0
LWPOLYLINE
  5
110
330
1F
100
AcDbEntity
  8
0
100
AcDbPolyline
 90
        2
 70
   128
 43
0.0
 10
150.981079
 20
90.43141
 10
150.896412
 20
89.92341
  0
LWPOLYLINE
  5
111
330
1F
100
AcDbEntity
  8
0
100
AcDbPolyline
 90
        2
 70
   128
 43
0.0
 10
150.896412
 20
89.92341
 10
150.981079
 20
89.457743
  0
LWPOLYLINE
  5
112
330
1F
100
AcDbEntity
  8
0
100
AcDbPolyline
 90
        2
 70
   128
 43
0.0
 10
150.981079
 20
89.457743
 10
151.235079
 20
88.992076
  0
LWPOLYLINE
  5
113
330
1F
100
AcDbEntity
  8
0
100
AcDbPolyline
 90
        2
 70
   128
 43
0.0
 10
151.235079
 20
88.992076
 10
151.573746
 20
88.65341
  0
LWPOLYLINE
  5
114
330
1F
100
AcDbEntity
  8
0
100
AcDbPolyline
 90
        2
 70
   128
 43
0.0
 10
151.573746
 20
88.65341
 10
151.997079
 20
88.441743
  0
LWPOLYLINE
  5
115
330
1F
100
AcDbEntity
  8
0
100
AcDbPolyline
 90
        2
 70
   128
 43
0.0
 10
151.997079
 20
88.441743
 10
152.505079
 20
88.357076
  0
LWPOLYLINE
  5
116
330
1F
100
AcDbEntity
  8
0
100
AcDbPolyline
 90
        2
 70
   128
 43
0.0
 10
152.505079
 20
88.357076
 10
153.013079
 20
88.441743
  0
LWPOLYLINE
  5
117
330
1F
100
AcDbEntity
  8
0
100
AcDbPolyline
 90
        2
 70
   128
 43
0.0
 10
153.013079
 20
88.441743
 10
153.436412
 20
88.65341
  0
LWPOLYLINE
  5
118
330
1F
100
AcDbEntity
  8
0
100
AcDbPolyline
 90
        2
 70
   128
 43
0.0
 10
153.436412
 20
88.65341
 10
153.775079
 20
88.992076
  0
LWPOLYLINE
  5
119
330
1F
100
AcDbEntity
  8
0
100
AcDbPolyline
 90
        2
 70
   128
 43
0.0
 10
153.775079
 20
88.992076
 10
154.029079
 20
89.457743
  0
LWPOLYLINE
  5
11A
330
1F
100
AcDbEntity
  8
0
100
AcDbPolyline
 90
        2
 70
   128
 43
0.0
 10
154.029079
 20
89.457743
 10
154.071412
 20
89.92341
  0
LWPOLYLINE
  5
11B
330
1F
100
AcDbEntity
  8
0
100
AcDbPolyline
 90
        2
 70
   128
 43
0.0
 10
154.071412
 20
89.92341
 10
154.029079
 20
90.43141
  0
LWPOLYLINE
  5
11C
330
1F
100
AcDbEntity
  8
0
100
AcDbPolyline
 90
        2
 70
   128
 43
0.0
 10
154.029079
 20
90.43141
 10
153.775079
 20
90.854743
  0
LWPOLYLINE
  5
11D
330
1F
100
AcDbEntity
  8
0
100
AcDbPolyline
 90
        2
 70
   128
 43
0.0
 10
153.775079
 20
90.854743
 10
153.436412
 20
91.235743
  0
LWPOLYLINE
  5
11E
330
1F
100
AcDbEntity
  8
0
100
AcDbPolyline
 90
        2
 70
   128
 43
0.0
 10
153.436412
 20
91.235743
 10
153.013079
 20
91.44741
  0
LWPOLYLINE
  5
11F
330
1F
100
AcDbEntity
  8
0
100
AcDbPolyline
 90
        2
 70
   128
 43
0.0
 10
153.013079
 20
91.44741
 10
152.505079
 20
91.532076
  0
LWPOLYLINE
  5
120
330
1F
100
AcDbEntity
  8
0
100
AcDbPolyline
 90
        2
 70
   128
 43
0.0
 10
144.848579
 20
90.746626
 10
144.933245
 20
90.238626
  0
LWPOLYLINE
  5
121
330
1F
100
AcDbEntity
  8
0
100
AcDbPolyline
 90
        2
 70
   128
 43
0.0
 10
144.933245
 20
90.238626
 10
145.144912
 20
89.815293
  0
LWPOLYLINE
  5
122
330
1F
100
AcDbEntity
  8
0
100
AcDbPolyline
 90
        2
 70
   128
 43
0.0
 10
145.144912
 20
89.815293
 10
145.525912
 20
89.476626
  0
LWPOLYLINE
  5
123
330
1F
100
AcDbEntity
  8
0
100
AcDbPolyline
 90
        2
 70
   128
 43
0.0
 10
145.525912
 20
89.476626
 10
145.949245
 20
89.222626
  0
LWPOLYLINE
  5
124
330
1F
100
AcDbEntity
  8
0
100
AcDbPolyline
 90
        2
 70
   128
 43
0.0
 10
145.949245
 20
89.222626
 10
146.457245
 20
89.13796
  0
LWPOLYLINE
  5
125
330
1F
100
AcDbEntity
  8
0
100
AcDbPolyline
 90
        2
 70
   128
 43
0.0
 10
146.457245
 20
89.13796
 10
146.922912
 20
89.222626
  0
LWPOLYLINE
  5
126
330
1F
100
AcDbEntity
  8
0
100
AcDbPolyline
 90
        2
 70
   128
 43
0.0
 10
146.922912
 20
89.222626
 10
147.388579
 20
89.476626
  0
LWPOLYLINE
  5
127
330
1F
100
AcDbEntity
  8
0
100
AcDbPolyline
 90
        2
 70
   128
 43
0.0
 10
147.388579
 20
89.476626
 10
147.727245
 20
89.815293
  0
LWPOLYLINE
  5
128
330
1F
100
AcDbEntity
  8
0
100
AcDbPolyline
 90
        2
 70
   128
 43
0.0
 10
147.727245
 20
89.815293
 10
147.938912
 20
90.238626
  0
LWPOLYLINE
  5
129
330
1F
100
AcDbEntity
  8
0
100
AcDbPolyline
 90
        2
 70
   128
 43
0.0
 10
147.938912
 20
90.238626
 10
148.023579
 20
90.746626
  0
LWPOLYLINE
  5
12A
330
1F
100
AcDbEntity
  8
0
100
AcDbPolyline
 90
        2
 70
   128
 43
0.0
 10
148.023579
 20
90.746626
 10
147.938912
 20
91.254626
  0
LWPOLYLINE
  5
12B
330
1F
100
AcDbEntity
  8
0
100
AcDbPolyline
 90
        2
 70
   128
 43
0.0
 10
147.938912
 20
91.254626
 10
147.727245
 20
91.67796
  0
LWPOLYLINE
  5
12C
330
1F
100
AcDbEntity
  8
0
100
AcDbPolyline
 90
        2
 70
   128
 43
0.0
 10
147.727245
 20
91.67796
 10
147.388579
 20
92.016626
  0
LWPOLYLINE
  5
12D
330
1F
100
AcDbEntity
  8
0
100
AcDbPolyline
 90
        2
 70
   128
 43
0.0
 10
147.388579
 20
92.016626
 10
146.922912
 20
92.270626
  0
LWPOLYLINE
  5
12E
330
1F
100
AcDbEntity
  8
0
100
AcDbPolyline
 90
        2
 70
   128
 43
0.0
 10
146.922912
 20
92.270626
 10
146.457245
 20
92.31296
  0
LWPOLYLINE
  5
12F
330
1F
100
AcDbEntity
  8
0
100
AcDbPolyline
 90
        2
 70
   128
 43
0.0
 10
146.457245
 20
92.31296
 10
145.949245
 20
92.270626
  0
LWPOLYLINE
  5
130
330
1F
100
AcDbEntity
  8
0
100
AcDbPolyline
 90
        2
 70
   128
 43
0.0
 10
145.949245
 20
92.270626
 10
145.525912
 20
92.016626
  0
LWPOLYLINE
  5
131
330
1F
100
AcDbEntity
  8
0
100
AcDbPolyline
 90
        2
 70
   128
 43
0.0
 10
145.525912
 20
92.016626
 10
145.144912
 20
91.67796
  0
LWPOLYLINE
  5
132
330
1F
100
AcDbEntity
  8
0
100
AcDbPolyline
 90
        2
 70
   128
 43
0.0
 10
145.144912
 20
91.67796
 10
144.933245
 20
91.254626
  0
LWPOLYLINE
  5
133
330
1F
100
AcDbEntity
  8
0
100
AcDbPolyline
 90
        2
 70
   128
 43
0.0
 10
144.933245
 20
91.254626
 10
144.848579
 20
90.746626
  0
LWPOLYLINE
  5
134
330
1F
100
AcDbEntity
  8
0
100
AcDbPolyline
 90
        2
 70
   128
 43
0.0
 10
144.887898
 20
113.634496
 10
144.972564
 20
113.126496
  0
LWPOLYLINE
  5
135
330
1F
100
AcDbEntity
  8
0
100
AcDbPolyline
 90
        2
 70
   128
 43
0.0
 10
144.972564
 20
113.126496
 10
145.184231
 20
112.703162
  0
LWPOLYLINE
  5
136
330
1F
100
AcDbEntity
  8
0
100
AcDbPolyline
 90
        2
 70
   128
 43
0.0
 10
145.184231
 20
112.703162
 10
145.565231
 20
112.364496
  0
LWPOLYLINE
  5
137
330
1F
100
AcDbEntity
  8
0
100
AcDbPolyline
 90
        2
 70
   128
 43
0.0
 10
145.565231
 20
112.364496
 10
145.988564
 20
112.110496
  0
LWPOLYLINE
  5
138
330
1F
100
AcDbEntity
  8
0
100
AcDbPolyline
 90
        2
 70
   128
 43
0.0
 10
145.988564
 20
112.110496
 10
146.496564
 20
112.025829
  0
LWPOLYLINE
  5
139
330
1F
100
AcDbEntity
  8
0
100
AcDbPolyline
 90
        2
 70
   128
 43
0.0
 10
146.496564
 20
112.025829
 10
146.962231
 20
112.110496
  0
LWPOLYLINE
  5
13A
330
1F
100
AcDbEntity
  8
0
100
AcDbPolyline
 90
        2
 70
   128
 43
0.0
 10
146.962231
 20
112.110496
 10
147.427898
 20
112.364496
  0
LWPOLYLINE
  5
13B
330
1F
100
AcDbEntity
  8
0
100
AcDbPolyline
 90
        2
 70
   128
 43
0.0
 10
147.427898
 20
112.364496
 10
147.766564
 20
112.703162
  0
LWPOLYLINE
  5
13C
330
1F
100
AcDbEntity
  8
0
100
AcDbPolyline
 90
        2
 70
   128
 43
0.0
 10
147.766564
 20
112.703162
 10
147.978231
 20
113.126496
  0
LWPOLYLINE
  5
13D
330
1F
100
AcDbEntity
  8
0
100
AcDbPolyline
 90
        2
 70
   128
 43
0.0
 10
147.978231
 20
113.126496
 10
148.062898
 20
113.634496
  0
LWPOLYLINE
  5
13E
330
1F
100
AcDbEntity
  8
0
100
AcDbPolyline
 90
        2
 70
   128
 43
0.0
 10
148.062898
 20
113.634496
 10
147.978231
 20
114.142496
  0
LWPOLYLINE
  5
13F
330
1F
100
AcDbEntity
  8
0
100
AcDbPolyline
 90
        2
 70
   128
 43
0.0
 10
147.978231
 20
114.142496
 10
147.766564
 20
114.565829
  0
LWPOLYLINE
  5
140
330
1F
100
AcDbEntity
  8
0
100
AcDbPolyline
 90
        2
 70
   128
 43
0.0
 10
147.766564
 20
114.565829
 10
147.427898
 20
114.904496
  0
LWPOLYLINE
  5
141
330
1F
100
AcDbEntity
  8
0
100
AcDbPolyline
 90
        2
 70
   128
 43
0.0
 10
147.427898
 20
114.904496
 10
146.962231
 20
115.158496
  0
LWPOLYLINE
  5
142
330
1F
100
AcDbEntity
  8
0
100
AcDbPolyline
 90
        2
 70
   128
 43
0.0
 10
146.962231
 20
115.158496
 10
146.496564
 20
115.200829
  0
LWPOLYLINE
  5
143
330
1F
100
AcDbEntity
  8
0
100
AcDbPolyline
 90
        2
 70
   128
 43
0.0
 10
146.496564
 20
115.200829
 10
145.988564
 20
115.158496
  0
LWPOLYLINE
  5
144
330
1F
100
AcDbEntity
  8
0
100
AcDbPolyline
 90
        2
 70
   128
 43
0.0
 10
145.988564
 20
115.158496
 10
145.565231
 20
114.904496
  0
LWPOLYLINE
  5
145
330
1F
100
AcDbEntity
  8
0
100
AcDbPolyline
 90
        2
 70
   128
 43
0.0
 10
145.565231
 20
114.904496
 10
145.184231
 20
114.565829
  0
LWPOLYLINE
  5
146
330
1F
100
AcDbEntity
  8
0
100
AcDbPolyline
 90
        2
 70
   128
 43
0.0
 10
145.184231
 20
114.565829
 10
144.972564
 20
114.142496
  0
LWPOLYLINE
  5
147
330
1F
100
AcDbEntity
  8
0
100
AcDbPolyline
 90
        2
 70
   128
 43
0.0
 10
144.972564
 20
114.142496
 10
144.887898
 20
113.634496
  0
LWPOLYLINE
  5
148
330
1F
100
AcDbEntity
  8
0
100
AcDbPolyline
 90
        2
 70
   128
 43
0.0
 10
120.517015
 20
89.473955
 10
120.940348
 20
89.219955
  0
LWPOLYLINE
  5
149
330
1F
100
AcDbEntity
  8
0
100
AcDbPolyline
 90
        2
 70
   128
 43
0.0
 10
120.940348
 20
89.219955
 10
121.448348
 20
89.135288
  0
LWPOLYLINE
  5
14A
330
1F
100
AcDbEntity
  8
0
100
AcDbPolyline
 90
        2
 70
   128
 43
0.0
 10
121.448348
 20
89.135288
 10
121.914015
 20
89.219955
  0
LWPOLYLINE
  5
14B
330
1F
100
AcDbEntity
  8
0
100
AcDbPolyline
 90
        2
 70
   128
 43
0.0
 10
121.914015
 20
89.219955
 10
122.379682
 20
89.473955
  0
LWPOLYLINE
  5
14C
330
1F
100
AcDbEntity
  8
0
100
AcDbPolyline
 90
        2
 70
   128
 43
0.0
 10
122.379682
 20
89.473955
 10
122.718348
 20
89.812622
  0
LWPOLYLINE
  5
14D
330
1F
100
AcDbEntity
  8
0
100
AcDbPolyline
 90
        2
 70
   128
 43
0.0
 10
122.718348
 20
89.812622
 10
122.930015
 20
90.235955
  0
LWPOLYLINE
  5
14E
330
1F
100
AcDbEntity
  8
0
100
AcDbPolyline
 90
        2
 70
   128
 43
0.0
 10
122.930015
 20
90.235955
 10
123.014682
 20
90.743955
  0
LWPOLYLINE
  5
14F
330
1F
100
AcDbEntity
  8
0
100
AcDbPolyline
 90
        2
 70
   128
 43
0.0
 10
123.014682
 20
90.743955
 10
122.930015
 20
91.251955
  0
LWPOLYLINE
  5
150
330
1F
100
AcDbEntity
  8
0
100
AcDbPolyline
 90
        2
 70
   128
 43
0.0
 10
122.930015
 20
91.251955
 10
122.718348
 20
91.675288
  0
LWPOLYLINE
  5
151
330
1F
100
AcDbEntity
  8
0
100
AcDbPolyline
 90
        2
 70
   128
 43
0.0
 10
122.718348
 20
91.675288
 10
122.379682
 20
92.013955
  0
LWPOLYLINE
  5
152
330
1F
100
AcDbEntity
  8
0
100
AcDbPolyline
 90
        2
 70
   128
 43
0.0
 10
122.379682
 20
92.013955
 10
121.914015
 20
92.267955
  0
LWPOLYLINE
  5
153
330
1F
100
AcDbEntity
  8
0
100
AcDbPolyline
 90
        2
 70
   128
 43
0.0
 10
121.914015
 20
92.267955
 10
121.448348
 20
92.310288
  0
LWPOLYLINE
  5
154
330
1F
100
AcDbEntity
  8
0
100
AcDbPolyline
 90
        2
 70
   128
 43
0.0
 10
121.448348
 20
92.310288
 10
120.940348
 20
92.267955
  0
LWPOLYLINE
  5
155
330
1F
100
AcDbEntity
  8
0
100
AcDbPolyline
 90
        2
 70
   128
 43
0.0
 10
120.940348
 20
92.267955
 10
120.517015
 20
92.013955
  0
LWPOLYLINE
  5
156
330
1F
100
AcDbEntity
  8
0
100
AcDbPolyline
 90
        2
 70
   128
 43
0.0
 10
120.175104
 20
112.702383
 10
120.556104
 20
112.363717
  0
LWPOLYLINE
  5
157
330
1F
100
AcDbEntity
  8
0
100
AcDbPolyline
 90
        2
 70
   128
 43
0.0
 10
120.556104
 20
112.363717
 10
120.979438
 20
112.109717
  0
LWPOLYLINE
  5
158
330
1F
100
AcDbEntity
  8
0
100
AcDbPolyline
 90
        2
 70
   128
 43
0.0
 10
120.979438
 20
112.109717
 10
121.487438
 20
112.02505
  0
LWPOLYLINE
  5
159
330
1F
100
AcDbEntity
  8
0
100
AcDbPolyline
 90
        2
 70
   128
 43
0.0
 10
121.487438
 20
112.02505
 10
121.953104
 20
112.109717
  0
LWPOLYLINE
  5
15A
330
1F
100
AcDbEntity
  8
0
100
AcDbPolyline
 90
        2
 70
   128
 43
0.0
 10
121.953104
 20
112.109717
 10
122.418771
 20
112.363717
  0
LWPOLYLINE
  5
15B
330
1F
100
AcDbEntity
  8
0
100
AcDbPolyline
 90
        2
 70
   128
 43
0.0
 10
122.418771
 20
112.363717
 10
122.757438
 20
112.702383
  0
LWPOLYLINE
  5
15C
330
1F
100
AcDbEntity
  8
0
100
AcDbPolyline
 90
        2
 70
   128
 43
0.0
 10
122.757438
 20
112.702383
 10
122.969104
 20
113.125717
  0
LWPOLYLINE
  5
15D
330
1F
100
AcDbEntity
  8
0
100
AcDbPolyline
 90
        2
 70
   128
 43
0.0
 10
122.969104
 20
113.125717
 10
123.053771
 20
113.633717
  0
LWPOLYLINE
  5
15E
330
1F
100
AcDbEntity
  8
0
100
AcDbPolyline
 90
        2
 70
   128
 43
0.0
 10
122.969104
 20
114.141717
 10
122.757438
 20
114.56505
  0
LWPOLYLINE
  5
15F
330
1F
100
AcDbEntity
  8
0
100
AcDbPolyline
 90
        2
 70
   128
 43
0.0
 10
122.757438
 20
114.56505
 10
122.418771
 20
114.903717
  0
LWPOLYLINE
  5
160
330
1F
100
AcDbEntity
  8
0
100
AcDbPolyline
 90
        2
 70
   128
 43
0.0
 10
122.418771
 20
114.903717
 10
121.953104
 20
115.157717
  0
LWPOLYLINE
  5
161
330
1F
100
AcDbEntity
  8
0
100
AcDbPolyline
 90
        2
 70
   128
 43
0.0
 10
121.953104
 20
115.157717
 10
121.487438
 20
115.20005
  0
LWPOLYLINE
  5
162
330
1F
100
AcDbEntity
  8
0
100
AcDbPolyline
 90
        2
 70
   128
 43
0.0
 10
121.487438
 20
115.20005
 10
120.979438
 20
115.157717
  0
LWPOLYLINE
  5
163
330
1F
100
AcDbEntity
  8
0
100
AcDbPolyline
 90
        2
 70
   128
 43
0.0
 10
120.979438
 20
115.157717
 10
120.556104
 20
114.903717
  0
LWPOLYLINE
  5
164
330
1F
100
AcDbEntity
  8
0
100
AcDbPolyline
 90
        2
 70
   128
 43
0.0
 10
120.556104
 20
114.903717
 10
120.175104
 20
114.56505
  0
LWPOLYLINE
  5
165
330
1F
100
AcDbEntity
  8
0
100
AcDbPolyline
 90
        2
 70
   128
 43
0.0
 10
119.839682
 20
90.743955
 10
119.924348
 20
90.235955
  0
LWPOLYLINE
  5
166
330
1F
100
AcDbEntity
  8
0
100
AcDbPolyline
 90
        2
 70
   128
 43
0.0
 10
119.924348
 20
90.235955
 10
120.136015
 20
89.812622
  0
LWPOLYLINE
  5
167
330
1F
100
AcDbEntity
  8
0
100
AcDbPolyline
 90
        2
 70
   128
 43
0.0
 10
120.136015
 20
89.812622
 10
120.517015
 20
89.473955
  0
LWPOLYLINE
  5
168
330
1F
100
AcDbEntity
  8
0
100
AcDbPolyline
 90
        2
 70
   128
 43
0.0
 10
120.517015
 20
92.013955
 10
120.136015
 20
91.675288
  0
LWPOLYLINE
  5
169
330
1F
100
AcDbEntity
  8
0
100
AcDbPolyline
 90
        2
 70
   128
 43
0.0
 10
120.136015
 20
91.675288
 10
119.924348
 20
91.251955
  0
LWPOLYLINE
  5
16A
330
1F
100
AcDbEntity
  8
0
100
AcDbPolyline
 90
        2
 70
   128
 43
0.0
 10
119.924348
 20
91.251955
 10
119.839682
 20
90.743955
  0
LWPOLYLINE
  5
16B
330
1F
100
AcDbEntity
  8
0
100
AcDbPolyline
 90
        2
 70
   128
 43
0.0
 10
119.878771
 20
113.633717
 10
119.963438
 20
113.125717
  0
LWPOLYLINE
  5
16C
330
1F
100
AcDbEntity
  8
0
100
AcDbPolyline
 90
        2
 70
   128
 43
0.0
 10
119.963438
 20
113.125717
 10
120.175104
 20
112.702383
  0
LWPOLYLINE
  5
16D
330
1F
100
AcDbEntity
  8
0
100
AcDbPolyline
 90
        2
 70
   128
 43
0.0
 10
120.175104
 20
114.56505
 10
119.963438
 20
114.141717
  0
LWPOLYLINE
  5
16E
330
1F
100
AcDbEntity
  8
0
100
AcDbPolyline
 90
        2
 70
   128
 43
0.0
 10
119.963438
 20
114.141717
 10
119.878771
 20
113.633717
  0
LWPOLYLINE
  5
16F
330
1F
100
AcDbEntity
  8
0
100
AcDbPolyline
 90
        2
 70
   128
 43
0.0
 10
123.053771
 20
113.633717
 10
122.969104
 20
114.141717
  0
LWPOLYLINE
  5
170
330
1F
100
AcDbEntity
  8
0
100
AcDbPolyline
 90
        2
 70
   128
 43
0.0
 10
54.290416
 20
103.778178
 10
53.782416
 20
103.693511
  0
LWPOLYLINE
  5
171
330
1F
100
AcDbEntity
  8
0
100
AcDbPolyline
 90
        2
 70
   128
 43
0.0
 10
53.782416
 20
103.693511
 10
53.359082
 20
103.481845
  0
LWPOLYLINE
  5
172
330
1F
100
AcDbEntity
  8
0
100
AcDbPolyline
 90
        2
 70
   128
 43
0.0
 10
53.359082
 20
103.481845
 10
53.020416
 20
103.100845
  0
LWPOLYLINE
  5
173
330
1F
100
AcDbEntity
  8
0
100
AcDbPolyline
 90
        2
 70
   128
 43
0.0
 10
53.020416
 20
103.100845
 10
52.766416
 20
102.677511
  0
LWPOLYLINE
  5
174
330
1F
100
AcDbEntity
  8
0
100
AcDbPolyline
 90
        2
 70
   128
 43
0.0
 10
52.766416
 20
102.677511
 10
52.681749
 20
102.169511
  0
LWPOLYLINE
  5
175
330
1F
100
AcDbEntity
  8
0
100
AcDbPolyline
 90
        2
 70
   128
 43
0.0
 10
52.681749
 20
102.169511
 10
52.766416
 20
101.703845
  0
LWPOLYLINE
  5
176
330
1F
100
AcDbEntity
  8
0
100
AcDbPolyline
 90
        2
 70
   128
 43
0.0
 10
52.766416
 20
101.703845
 10
53.020416
 20
101.238178
  0
LWPOLYLINE
  5
177
330
1F
100
AcDbEntity
  8
0
100
AcDbPolyline
 90
        2
 70
   128
 43
0.0
 10
53.020416
 20
101.238178
 10
53.359082
 20
100.899511
  0
LWPOLYLINE
  5
178
330
1F
100
AcDbEntity
  8
0
100
AcDbPolyline
 90
        2
 70
   128
 43
0.0
 10
53.359082
 20
100.899511
 10
53.782416
 20
100.687845
  0
LWPOLYLINE
  5
179
330
1F
100
AcDbEntity
  8
0
100
AcDbPolyline
 90
        2
 70
   128
 43
0.0
 10
53.782416
 20
100.687845
 10
54.290416
 20
100.603178
  0
LWPOLYLINE
  5
17A
330
1F
100
AcDbEntity
  8
0
100
AcDbPolyline
 90
        2
 70
   128
 43
0.0
 10
54.290416
 20
100.603178
 10
54.798416
 20
100.687845
  0
LWPOLYLINE
  5
17B
330
1F
100
AcDbEntity
  8
0
100
AcDbPolyline
 90
        2
 70
   128
 43
0.0
 10
54.798416
 20
100.687845
 10
55.221749
 20
100.899511
  0
LWPOLYLINE
  5
17C
330
1F
100
AcDbEntity
  8
0
100
AcDbPolyline
 90
        2
 70
   128
 43
0.0
 10
55.221749
 20
100.899511
 10
55.560416
 20
101.238178
  0
LWPOLYLINE
  5
17D
330
1F
100
AcDbEntity
  8
0
100
AcDbPolyline
 90
        2
 70
   128
 43
0.0
 10
55.560416
 20
101.238178
 10
55.814416
 20
101.703845
  0
LWPOLYLINE
  5
17E
330
1F
100
AcDbEntity
  8
0
100
AcDbPolyline
 90
        2
 70
   128
 43
0.0
 10
55.814416
 20
101.703845
 10
55.856749
 20
102.169511
  0
LWPOLYLINE
  5
17F
330
1F
100
AcDbEntity
  8
0
100
AcDbPolyline
 90
        2
 70
   128
 43
0.0
 10
55.856749
 20
102.169511
 10
55.814416
 20
102.677511
  0
LWPOLYLINE
  5
180
330
1F
100
AcDbEntity
  8
0
100
AcDbPolyline
 90
        2
 70
   128
 43
0.0
 10
55.814416
 20
102.677511
 10
55.560416
 20
103.100845
  0
LWPOLYLINE
  5
181
330
1F
100
AcDbEntity
  8
0
100
AcDbPolyline
 90
        2
 70
   128
 43
0.0
 10
55.560416
 20
103.100845
 10
55.221749
 20
103.481845
  0
LWPOLYLINE
  5
182
330
1F
100
AcDbEntity
  8
0
100
AcDbPolyline
 90
        2
 70
   128
 43
0.0
 10
55.221749
 20
103.481845
 10
54.798416
 20
103.693511
  0
LWPOLYLINE
  5
183
330
1F
100
AcDbEntity
  8
0
100
AcDbPolyline
 90
        2
 70
   128
 43
0.0
 10
54.798416
 20
103.693511
 10
54.290416
 20
103.778178
  0
LWPOLYLINE
  5
184
330
1F
100
AcDbEntity
  8
0
100
AcDbPolyline
 90
        2
 70
   128
 43
0.0
 10
83.287767
 20
103.778178
 10
82.779767
 20
103.693511
  0
LWPOLYLINE
  5
185
330
1F
100
AcDbEntity
  8
0
100
AcDbPolyline
 90
        2
 70
   128
 43
0.0
 10
82.779767
 20
103.693511
 10
82.356434
 20
103.481845
  0
LWPOLYLINE
  5
186
330
1F
100
AcDbEntity
  8
0
100
AcDbPolyline
 90
        2
 70
   128
 43
0.0
 10
82.356434
 20
103.481845
 10
82.017767
 20
103.100845
  0
LWPOLYLINE
  5
187
330
1F
100
AcDbEntity
  8
0
100
AcDbPolyline
 90
        2
 70
   128
 43
0.0
 10
82.017767
 20
103.100845
 10
81.763767
 20
102.677511
  0
LWPOLYLINE
  5
188
330
1F
100
AcDbEntity
  8
0
100
AcDbPolyline
 90
        2
 70
   128
 43
0.0
 10
81.763767
 20
102.677511
 10
81.6791
 20
102.169511
  0
LWPOLYLINE
  5
189
330
1F
100
AcDbEntity
  8
0
100
AcDbPolyline
 90
        2
 70
   128
 43
0.0
 10
81.6791
 20
102.169511
 10
81.763767
 20
101.703845
  0
LWPOLYLINE
  5
18A
330
1F
100
AcDbEntity
  8
0
100
AcDbPolyline
 90
        2
 70
   128
 43
0.0
 10
81.763767
 20
101.703845
 10
82.017767
 20
101.238178
  0
LWPOLYLINE
  5
18B
330
1F
100
AcDbEntity
  8
0
100
AcDbPolyline
 90
        2
 70
   128
 43
0.0
 10
82.017767
 20
101.238178
 10
82.356434
 20
100.899511
  0
LWPOLYLINE
  5
18C
330
1F
100
AcDbEntity
  8
0
100
AcDbPolyline
 90
        2
 70
   128
 43
0.0
 10
82.356434
 20
100.899511
 10
82.779767
 20
100.687845
  0
LWPOLYLINE
  5
18D
330
1F
100
AcDbEntity
  8
0
100
AcDbPolyline
 90
        2
 70
   128
 43
0.0
 10
82.779767
 20
100.687845
 10
83.287767
 20
100.603178
  0
LWPOLYLINE
  5
18E
330
1F
100
AcDbEntity
  8
0
100
AcDbPolyline
 90
        2
 70
   128
 43
0.0
 10
83.287767
 20
100.603178
 10
83.795767
 20
100.687845
  0
LWPOLYLINE
  5
18F
330
1F
100
AcDbEntity
  8
0
100
AcDbPolyline
 90
        2
 70
   128
 43
0.0
 10
83.795767
 20
100.687845
 10
84.2191
 20
100.899511
  0
LWPOLYLINE
  5
190
330
1F
100
AcDbEntity
  8
0
100
AcDbPolyline
 90
        2
 70
   128
 43
0.0
 10
84.2191
 20
100.899511
 10
84.557767
 20
101.238178
  0
LWPOLYLINE
  5
191
330
1F
100
AcDbEntity
  8
0
100
AcDbPolyline
 90
        2
 70
   128
 43
0.0
 10
84.557767
 20
101.238178
 10
84.811767
 20
101.703845
  0
LWPOLYLINE
  5
192
330
1F
100
AcDbEntity
  8
0
100
AcDbPolyline
 90
        2
 70
   128
 43
0.0
 10
84.811767
 20
101.703845
 10
84.8541
 20
102.169511
  0
LWPOLYLINE
  5
193
330
1F
100
AcDbEntity
  8
0
100
AcDbPolyline
 90
        2
 70
   128
 43
0.0
 10
84.8541
 20
102.169511
 10
84.811767
 20
102.677511
  0
LWPOLYLINE
  5
194
330
1F
100
AcDbEntity
  8
0
100
AcDbPolyline
 90
        2
 70
   128
 43
0.0
 10
84.811767
 20
102.677511
 10
84.557767
 20
103.100845
  0
LWPOLYLINE
  5
195
330
1F
100
AcDbEntity
  8
0
100
AcDbPolyline
 90
        2
 70
   128
 43
0.0
 10
84.557767
 20
103.100845
 10
84.2191
 20
103.481845
  0
LWPOLYLINE
  5
196
330
1F
100
AcDbEntity
  8
0
100
AcDbPolyline
 90
        2
 70
   128
 43
0.0
 10
84.2191
 20
103.481845
 10
83.795767
 20
103.693511
  0
LWPOLYLINE
  5
197
330
1F
100
AcDbEntity
  8
0
100
AcDbPolyline
 90
        2
 70
   128
 43
0.0
 10
83.795767
 20
103.693511
 10
83.287767
 20
103.778178
  0
LWPOLYLINE
  5
198
330
1F
100
AcDbEntity
  8
0
100
AcDbPolyline
 90
        4
 70
   128
 43
0.0
 10
49.3185
 20
69.666333
 10
49.233833
 20
70.470669
 10
49.233833
 20
133.895349
 10
49.3185
 20
134.699667
  0
LWPOLYLINE
  5
199
330
1F
100
AcDbEntity
  8
0
100
AcDbPolyline
 90
        4
 70
   128
 43
0.0
 10
166.5395
 20
69.666333
 10
166.624167
 20
70.470664
 10
166.624167
 20
133.895345
 10
166.5395
 20
134.699667
  0
ENDSEC
  0
SECTION
  2
OBJECTS
  0
DICTIONARY
  5
C
330
0
100
AcDbDictionary
281
     1
  3
ACAD_GROUP
350
D
  3
ACAD_LAYOUT
350
1A
  3
ACAD_MLINESTYLE
350
17
  3
ACAD_PLOTSETTINGS
350
19
  3
ACAD_PLOTSTYLENAME
350
E
  0
DICTIONARY
  5
D
102
{ACAD_REACTORS
330
C
102
}
330
C
100
AcDbDictionary
281
     1
  0
DICTIONARY
  5
1A
102
{ACAD_REACTORS
330
C
102
}
330
C
100
AcDbDictionary
281
     1
  3
Layout1
350
1E
  3
Layout2
350
26
  3
Model
350
22
  0
DICTIONARY
  5
17
102
{ACAD_REACTORS
330
C
102
}
330
C
100
AcDbDictionary
281
     1
  3
Standard
350
18
  0
DICTIONARY
  5
19
102
{ACAD_REACTORS
330
C
102
}
330
C
100
AcDbDictionary
281
     1
  0
ACDBDICTIONARYWDFLT
  5
E
102
{ACAD_REACTORS
330
C
102
}
330
C
100
AcDbDictionary
281
     1
  3
Normal
350
F
100
AcDbDictionaryWithDefault
340
F
  0
LAYOUT
  5
1E
102
{ACAD_REACTORS
330
1A
102
}
330
1A
100
AcDbPlotSettings
  1

  2

  4

  6

 40
0.0
 41
0.0
 42
0.0
 43
0.0
 44
0.0
 45
0.0
 46
0.0
 47
0.0
 48
0.0
 49
0.0
140
0.0
141
0.0
142
1.0
143
1.0
 70
   688
 72
     0
 73
     0
 74
     5
  7

 75
    16
147
1.0
148
0.0
149
0.0
100
AcDbLayout
  1
Layout1
 70
     1
 71
     1
 10
0.0
 20
0.0
 11
420.0
 21
297.0
 12
0.0
 22
0.0
 32
0.0
 14
1.000000E+20
 24
1.000000E+20
 34
1.000000E+20
 15
-1.000000E+20
 25
-1.000000E+20
 35
-1.000000E+20
146
0.0
 13
0.0
 23
0.0
 33
0.0
 16
1.0
 26
0.0
 36
0.0
 17
0.0
 27
1.0
 37
0.0
 76
     0
330
1B
  0
LAYOUT
  5
26
102
{ACAD_REACTORS
330
1A
102
}
330
1A
100
AcDbPlotSettings
  1

  2

  4

  6

 40
0.0
 41
0.0
 42
0.0
 43
0.0
 44
0.0
 45
0.0
 46
0.0
 47
0.0
 48
0.0
 49
0.0
140
0.0
141
0.0
142
1.0
143
1.0
 70
   688
 72
     0
 73
     0
 74
     5
  7

 75
    16
147
1.0
148
0.0
149
0.0
100
AcDbLayout
  1
Layout2
 70
     1
 71
     2
 10
0.0
 20
0.0
 11
0.0
 21
0.0
 12
0.0
 22
0.0
 32
0.0
 14
0.0
 24
0.0
 34
0.0
 15
0.0
 25
0.0
 35
0.0
146
0.0
 13
0.0
 23
0.0
 33
0.0
 16
1.0
 26
0.0
 36
0.0
 17
0.0
 27
1.0
 37
0.0
 76
     0
330
23
  0
LAYOUT
  5
22
102
{ACAD_REACTORS
330
1A
102
}
330
1A
100
AcDbPlotSettings
  1

  2

  4

  6

 40
0.0
 41
0.0
 42
0.0
 43
0.0
 44
0.0
 45
0.0
 46
0.0
 47
0.0
 48
0.0
 49
0.0
140
0.0
141
0.0
142
1.0
143
1.0
 70
  1712
 72
     0
 73
     0
 74
     0
  7

 75
     0
147
1.0
148
0.0
149
0.0
100
AcDbLayout
  1
Model
 70
     1
 71
     0
 10
0.0
 20
0.0
 11
0.0
 21
0.0
 12
0.0
 22
0.0
 32
0.0
 14
0.0
 24
0.0
 34
0.0
 15
0.0
 25
0.0
 35
0.0
146
0.0
 13
0.0
 23
0.0
 33
0.0
 16
1.0
 26
0.0
 36
0.0
 17
0.0
 27
1.0
 37
0.0
 76
     0
330
1F
  0
MLINESTYLE
  5
18
102
{ACAD_REACTORS
330
17
102
}
330
17
100
AcDbMlineStyle
  2
Standard
 70
     0
  3

 62
   256
 51
90.0
 52
90.0
 71
     2
 49
1.0
 62
   256
  6
BYLAYER
 49
-1.0
 62
   256
  6
BYLAYER
  0
ACDBPLACEHOLDER
  5
F
102
{ACAD_REACTORS
330
E
102
}
330
E
  0
ENDSEC
  0
EOF
