  0
SECTION
  2
HEADER
  9
$ACADVER
  1
AC1015
  9
$ACADMAINTVER
 70
     6
  9
$DWGCODEPAGE
  3
ANSI_932
  9
$INSBASE
 10
0.0
 20
0.0
 30
0.0
  9
$EXTMIN
 10
1.000000E+20
 20
1.000000E+20
 30
1.000000E+20
  9
$EXTMAX
 10
-1.000000E+20
 20
-1.000000E+20
 30
-1.000000E+20
  9
$LIMMIN
 10
0.0
 20
0.0
  9
$LIMMAX
 10
420.0
 20
297.0
  9
$ORTHOMODE
 70
     0
  9
$REGENMODE
 70
     1
  9
$FILLMODE
 70
     1
  9
$QTEXTMODE
 70
     0
  9
$MIRRTEXT
 70
     1
  9
$LTSCALE
 40
1.0
  9
$ATTMODE
 70
     1
  9
$TEXTSIZE
 40
2.5
  9
$TRACEWID
 40
1.0
  9
$TEXTSTYLE
  7
Standard
  9
$CLAYER
  8
0
  9
$CELTYPE
  6
ByLayer
  9
$CECOLOR
 62
   256
  9
$CELTSCALE
 40
1.0
  9
$DISPSILH
 70
     0
  9
$DIMSCALE
 40
1.0
  9
$DIMASZ
 40
2.5
  9
$DIMEXO
 40
0.625
  9
$DIMDLI
 40
3.75
  9
$DIMRND
 40
0.0
  9
$DIMDLE
 40
0.0
  9
$DIMEXE
 40
1.25
  9
$DIMTP
 40
0.0
  9
$DIMTM
 40
0.0
  9
$DIMTXT
 40
2.5
  9
$DIMCEN
 40
2.5
  9
$DIMTSZ
 40
0.0
  9
$DIMTOL
 70
     0
  9
$DIMLIM
 70
     0
  9
$DIMTIH
 70
     0
  9
$DIMTOH
 70
     0
  9
$DIMSE1
 70
     0
  9
$DIMSE2
 70
     0
  9
$DIMTAD
 70
     1
  9
$DIMZIN
 70
     8
  9
$DIMBLK
  1

  9
$DIMASO
 70
     1
  9
$DIMSHO
 70
     1
  9
$DIMPOST
  1

  9
$DIMAPOST
  1

  9
$DIMALT
 70
     0
  9
$DIMALTD
 70
     3
  9
$DIMALTF
 40
0.03937
  9
$DIMLFAC
 40
1.0
  9
$DIMTOFL
 70
     1
  9
$DIMTVP
 40
0.0
  9
$DIMTIX
 70
     0
  9
$DIMSOXD
 70
     0
  9
$DIMSAH
 70
     0
  9
$DIMBLK1
  1

  9
$DIMBLK2
  1

  9
$DIMSTYLE
  2
ISO-25
  9
$DIMCLRD
 70
     0
  9
$DIMCLRE
 70
     0
  9
$DIMCLRT
 70
     0
  9
$DIMTFAC
 40
1.0
  9
$DIMGAP
 40
0.625
  9
$DIMJUST
 70
     0
  9
$DIMSD1
 70
     0
  9
$DIMSD2
 70
     0
  9
$DIMTOLJ
 70
     0
  9
$DIMTZIN
 70
     8
  9
$DIMALTZ
 70
     0
  9
$DIMALTTZ
 70
     0
  9
$DIMUPT
 70
     0
  9
$DIMDEC
 70
     2
  9
$DIMTDEC
 70
     2
  9
$DIMALTU
 70
     2
  9
$DIMALTTD
 70
     3
  9
$DIMTXSTY
  7
Standard
  9
$DIMAUNIT
 70
     0
  9
$DIMADEC
 70
     0
  9
$DIMALTRND
 40
0.0
  9
$DIMAZIN
 70
     0
  9
$DIMDSEP
 70
    44
  9
$DIMATFIT
 70
     3
  9
$DIMFRAC
 70
     0
  9
$DIMLDRBLK
  1

  9
$DIMLUNIT
 70
     2
  9
$DIMLWD
 70
    -2
  9
$DIMLWE
 70
    -2
  9
$DIMTMOVE
 70
     0
  9
$LUNITS
 70
     2
  9
$LUPREC
 70
     4
  9
$SKETCHINC
 40
1.0
  9
$FILLETRAD
 40
10.0
  9
$AUNITS
 70
     0
  9
$AUPREC
 70
     0
  9
$MENU
  1
.
  9
$ELEVATION
 40
0.0
  9
$PELEVATION
 40
0.0
  9
$THICKNESS
 40
0.0
  9
$LIMCHECK
 70
     0
  9
$CHAMFERA
 40
10.0
  9
$CHAMFERB
 40
10.0
  9
$CHAMFERC
 40
20.0
  9
$CHAMFERD
 40
0.0
  9
$SKPOLY
 70
     0
  9
$TDCREATE
 40
2455801.525108831
  9
$TDUCREATE
 40
2455801.150108831
  9
$TDUPDATE
 40
2455801.525108843
  9
$TDUUPDATE
 40
2455801.150108843
  9
$TDINDWG
 40
0.0000000116
  9
$TDUSRTIMER
 40
0.0000000116
  9
$USRTIMER
 70
     1
  9
$ANGBASE
 50
0.0
  9
$ANGDIR
 70
     0
  9
$PDMODE
 70
     3
  9
$PDSIZE
 40
-0.7
  9
$PLINEWID
 40
0.0
  9
$SPLFRAME
 70
     0
  9
$SPLINETYPE
 70
     6
  9
$SPLINESEGS
 70
     8
  9
$HANDSEED
  5
19A
  9
$SURFTAB1
 70
     6
  9
$SURFTAB2
 70
     6
  9
$SURFTYPE
 70
     6
  9
$SURFU
 70
     6
  9
$SURFV
 70
     6
  9
$UCSBASE
  2

  9
$UCSNAME
  2

  9
$UCSORG
 10
0.0
 20
0.0
 30
0.0
  9
$UCSXDIR
 10
1.0
 20
0.0
 30
0.0
  9
$UCSYDIR
 10
0.0
 20
1.0
 30
0.0
  9
$UCSORTHOREF
  2

  9
$UCSORTHOVIEW
 70
     0
  9
$UCSORGTOP
 10
0.0
 20
0.0
 30
0.0
  9
$UCSORGBOTTOM
 10
0.0
 20
0.0
 30
0.0
  9
$UCSORGLEFT
 10
0.0
 20
0.0
 30
0.0
  9
$UCSORGRIGHT
 10
0.0
 20
0.0
 30
0.0
  9
$UCSORGFRONT
 10
0.0
 20
0.0
 30
0.0
  9
$UCSORGBACK
 10
0.0
 20
0.0
 30
0.0
  9
$PUCSBASE
  2

  9
$PUCSNAME
  2

  9
$PUCSORG
 10
0.0
 20
0.0
 30
0.0
  9
$PUCSXDIR
 10
1.0
 20
0.0
 30
0.0
  9
$PUCSYDIR
 10
0.0
 20
1.0
 30
0.0
  9
$PUCSORTHOREF
  2

  9
$PUCSORTHOVIEW
 70
     0
  9
$PUCSORGTOP
 10
0.0
 20
0.0
 30
0.0
  9
$PUCSORGBOTTOM
 10
0.0
 20
0.0
 30
0.0
  9
$PUCSORGLEFT
 10
0.0
 20
0.0
 30
0.0
  9
$PUCSORGRIGHT
 10
0.0
 20
0.0
 30
0.0
  9
$PUCSORGFRONT
 10
0.0
 20
0.0
 30
0.0
  9
$PUCSORGBACK
 10
0.0
 20
0.0
 30
0.0
  9
$USERI1
 70
     0
  9
$USERI2
 70
     0
  9
$USERI3
 70
     0
  9
$USERI4
 70
     0
  9
$USERI5
 70
     0
  9
$USERR1
 40
0.0
  9
$USERR2
 40
0.0
  9
$USERR3
 40
0.0
  9
$USERR4
 40
0.0
  9
$USERR5
 40
0.0
  9
$WORLDVIEW
 70
     1
  9
$SHADEDGE
 70
     3
  9
$SHADEDIF
 70
    70
  9
$TILEMODE
 70
     1
  9
$MAXACTVP
 70
    64
  9
$PINSBASE
 10
0.0
 20
0.0
 30
0.0
  9
$PLIMCHECK
 70
     0
  9
$PEXTMIN
 10
1.000000E+20
 20
1.000000E+20
 30
1.000000E+20
  9
$PEXTMAX
 10
-1.000000E+20
 20
-1.000000E+20
 30
-1.000000E+20
  9
$PLIMMIN
 10
0.0
 20
0.0
  9
$PLIMMAX
 10
420.0
 20
297.0
  9
$UNITMODE
 70
     0
  9
$VISRETAIN
 70
     1
  9
$PLINEGEN
 70
     0
  9
$PSLTSCALE
 70
     1
  9
$TREEDEPTH
 70
  3020
  9
$CMLSTYLE
  2
Standard
  9
$CMLJUST
 70
     1
  9
$CMLSCALE
 40
1.0
  9
$PROXYGRAPHICS
 70
     1
  9
$MEASUREMENT
 70
     1
  9
$CELWEIGHT
370
    -1
  9
$ENDCAPS
280
     0
  9
$JOINSTYLE
280
     0
  9
$LWDISPLAY
290
     0
  9
$INSUNITS
 70
     4
  9
$HYPERLINKBASE
  1

  9
$STYLESHEET
  1

  9
$XEDIT
290
     1
  9
$CEPSNTYPE
380
     0
  9
$PSTYLEMODE
290
     1
  9
$FINGERPRINTGUID
  2
{FAEB1C30-E019-11D5-929B-00C0DF256EC4}
  9
$VERSIONGUID
  2
{FAEB1C32-E019-11D5-929B-00C0DF256EC4}
  9
$EXTNAMES
290
     1
  9
$PSVPSCALE
 40
0.0
  9
$OLESTARTUP
290
     0
  0
ENDSEC
  0
SECTION
  2
CLASSES
  0
CLASS
  1
ACDBDICTIONARYWDFLT
  2
AcDbDictionaryWithDefault
  3
ObjectDBX Classes
 90
        0
280
     0
281
     0
  0
CLASS
  1
ACDBPLACEHOLDER
  2
AcDbPlaceHolder
  3
ObjectDBX Classes
 90
        0
280
     0
281
     0
  0
CLASS
  1
LAYOUT
  2
AcDbLayout
  3
ObjectDBX Classes
 90
        0
280
     0
281
     0
  0
ENDSEC
  0
SECTION
  2
TABLES
  0
TABLE
  2
VPORT
  5
8
330
0
100
AcDbSymbolTable
 70
     2
  0
VPORT
  5
29
330
8
100
AcDbSymbolTableRecord
100
AcDbViewportTableRecord
  2
*Active
 70
     0
 10
0.0
 20
0.0
 11
1.0
 21
1.0
 12
50.0
 22
50.0
 13
0.0
 23
0.0
 14
10.0
 24
10.0
 15
10.0
 25
10.0
 16
0.0
 26
0.0
 36
1.0
 17
0.0
 27
0.0
 37
0.0
 40
103.921569
 41
1.0
 42
50.0
 43
0.0
 44
0.0
 50
0.0
 51
0.0
 71
     0
 72
   100
 73
     1
 74
     3
 75
     0
 76
     0
 77
     0
 78
     0
281
     0
 65
     1
110
0.0
120
0.0
130
0.0
111
1.0
121
0.0
131
0.0
112
0.0
122
1.0
132
0.0
 79
     0
146
0.0
  0
ENDTAB
  0
TABLE
  2
LTYPE
  5
5
330
0
100
AcDbSymbolTable
 70
     1
  0
LTYPE
  5
14
330
5
100
AcDbSymbolTableRecord
100
AcDbLinetypeTableRecord
  2
ByBlock
 70
     0
  3

 72
    65
 73
     0
 40
0.0
  0
LTYPE
  5
15
330
5
100
AcDbSymbolTableRecord
100
AcDbLinetypeTableRecord
  2
ByLayer
 70
     0
  3

 72
    65
 73
     0
 40
0.0
  0
LTYPE
  5
16
330
5
100
AcDbSymbolTableRecord
100
AcDbLinetypeTableRecord
  2
Continuous
 70
     0
  3

 72
    65
 73
     0
 40
0.0
  0
ENDTAB
  0
TABLE
  2
LAYER
  5
2
330
0
100
AcDbSymbolTable
 70
     1
  0
LAYER
  5
10
330
2
100
AcDbSymbolTableRecord
100
AcDbLayerTableRecord
  2
0
 70
     0
 62
     7
  6
Continuous
370
    -3
390
F
  0
ENDTAB
  0
TABLE
  2
STYLE
  5
3
330
0
100
AcDbSymbolTable
 70
     1
  0
STYLE
  5
11
330
3
100
AcDbSymbolTableRecord
100
AcDbTextStyleTableRecord
  2
Standard
 70
     0
 40
1.0
 41
1.0
 50
0.0
 71
     0
 42
2.5
  3
RomanS
  4

  0
ENDTAB
  0
TABLE
  2
VIEW
  5
6
330
0
100
AcDbSymbolTable
 70
     0
  0
ENDTAB
  0
TABLE
  2
UCS
  5
7
330
0
100
AcDbSymbolTable
 70
     0
  0
ENDTAB
  0
TABLE
  2
APPID
  5
9
330
0
100
AcDbSymbolTable
 70
     1
  0
APPID
  5
12
330
9
100
AcDbSymbolTableRecord
100
AcDbRegAppTableRecord
  2
ACAD
 70
     0
  0
ENDTAB
  0
TABLE
  2
DIMSTYLE
  5
A
330
0
100
AcDbSymbolTable
 70
     1
100
AcDbDimStyleTable
  0
DIMSTYLE
105
27
330
A
100
AcDbSymbolTableRecord
100
AcDbDimStyleTableRecord
  2
ISO-25
 70
     0
 41
2.5
 42
0.625
 44
1.25
 73
     0
 74
     0
 77
     1
 78
     8
 79
     2
140
2.5
141
2.5
146
0.0
147
0.625
271
     2
272
     0
273
     0
274
     0
278
    44
283
     0
289
     0
340
11
  0
ENDTAB
  0
TABLE
  2
BLOCK_RECORD
  5
1
330
0
100
AcDbSymbolTable
 70
     1
  0
BLOCK_RECORD
  5
1F
330
1
100
AcDbSymbolTableRecord
100
AcDbBlockTableRecord
  2
*Model_Space
340
22
  0
BLOCK_RECORD
  5
1B
330
1
100
AcDbSymbolTableRecord
100
AcDbBlockTableRecord
  2
*Paper_Space
340
1E
  0
BLOCK_RECORD
  5
23
330
1
100
AcDbSymbolTableRecord
100
AcDbBlockTableRecord
  2
*Paper_Space0
340
26
  0
ENDTAB
  0
ENDSEC
  0
SECTION
  2
BLOCKS
  0
BLOCK
  5
20
330
1F
100
AcDbEntity
  8
0
100
AcDbBlockBegin
  2
*Model_Space
 70
     0
 71
     0
 10
0.0
 20
0.0
 30
0.0
  3
*Model_Space
  1

  0
ENDBLK
  5
21
330
1F
100
AcDbEntity
  8
0
100
AcDbBlockEnd
  0
BLOCK
  5
1C
330
1B
100
AcDbEntity
 67
     1
  8
0
100
AcDbBlockBegin
  2
*Paper_Space
 70
     0
 71
     0
 10
0.0
 20
0.0
 30
0.0
  3
*Paper_Space
  1

  0
ENDBLK
  5
1D
330
1B
100
AcDbEntity
 67
     1
  8
0
100
AcDbBlockEnd
  0
BLOCK
  5
24
330
23
100
AcDbEntity
  8
0
100
AcDbBlockBegin
  2
*Paper_Space0
 70
     0
 71
     0
 10
0.0
 20
0.0
 30
0.0
  3
*Paper_Space0
  1

  0
ENDBLK
  5
25
330
23
100
AcDbEntity
  8
0
100
AcDbBlockEnd
  0
ENDSEC
  0
SECTION
  2
ENTITIES
  0
LWPOLYLINE
  5
2A
330
1F
100
AcDbEntity
  8
0
100
AcDbPolyline
 90
        7
 70
   128
 43
0.0
 10
4.426654
 20
55.044218
 42
0.414214
 10
5.840868
 20
55.044218
 42
0.414214
 10
5.84087
 20
56.458432
 10
5.133761
 20
57.165539
 42
0.414214
 10
3.719548
 20
57.165539
 42
0.414214
 10
3.719548
 20
55.751325
 10
4.426666
 20
55.044213
  0
LWPOLYLINE
  5
2B
330
1F
100
AcDbEntity
  8
0
100
AcDbPolyline
 90
        7
 70
   128
 43
0.0
 10
5.834129
 20
13.315681
 42
0.414214
 10
5.834129
 20
14.729894
 42
0.414214
 10
4.419916
 20
14.729896
 10
3.712809
 20
14.022787
 42
0.414214
 10
3.712809
 20
12.608574
 42
0.414214
 10
5.127022
 20
12.608574
 10
5.834135
 20
13.315693
  0
LWPOLYLINE
  5
2C
330
1F
100
AcDbEntity
  8
0
100
AcDbPolyline
 90
        7
 70
   128
 43
0.0
 10
111.548272
 20
56.456588
 42
0.414214
 10
111.548272
 20
55.042375
 42
0.414214
 10
112.962486
 20
55.042373
 10
113.669592
 20
55.749481
 42
0.414214
 10
113.669592
 20
57.163695
 42
0.414214
 10
112.255379
 20
57.163695
 10
111.548267
 20
56.456576
  0
LWPOLYLINE
  5
2D
330
1F
100
AcDbEntity
  8
0
100
AcDbPolyline
 90
        7
 70
   128
 43
0.0
 10
112.965283
 20
14.732218
 42
0.414214
 10
111.551069
 20
14.732218
 42
0.414214
 10
111.551068
 20
13.318004
 10
112.258176
 20
12.610897
 42
0.414214
 10
113.67239
 20
12.610897
 42
0.414214
 10
113.67239
 20
14.025111
 10
112.965271
 20
14.732223
  0
LWPOLYLINE
  5
2E
330
1F
100
AcDbEntity
  8
0
100
AcDbPolyline
 90
        2
 70
   128
 43
0.0
 10
14.266346
 20
66.599671
 10
13.758346
 20
66.515004
  0
LWPOLYLINE
  5
2F
330
1F
100
AcDbEntity
  8
0
100
AcDbPolyline
 90
        2
 70
   128
 43
0.0
 10
13.758346
 20
66.515004
 10
13.335013
 20
66.303337
  0
LWPOLYLINE
  5
30
330
1F
100
AcDbEntity
  8
0
100
AcDbPolyline
 90
        2
 70
   128
 43
0.0
 10
13.335013
 20
66.303337
 10
12.996346
 20
65.922337
  0
LWPOLYLINE
  5
31
330
1F
100
AcDbEntity
  8
0
100
AcDbPolyline
 90
        2
 70
   128
 43
0.0
 10
12.996346
 20
65.922337
 10
12.742346
 20
65.499004
  0
LWPOLYLINE
  5
32
330
1F
100
AcDbEntity
  8
0
100
AcDbPolyline
 90
        2
 70
   128
 43
0.0
 10
12.742346
 20
65.499004
 10
12.65768
 20
64.991004
  0
LWPOLYLINE
  5
33
330
1F
100
AcDbEntity
  8
0
100
AcDbPolyline
 90
        2
 70
   128
 43
0.0
 10
12.65768
 20
64.991004
 10
12.742346
 20
64.525337
  0
LWPOLYLINE
  5
34
330
1F
100
AcDbEntity
  8
0
100
AcDbPolyline
 90
        2
 70
   128
 43
0.0
 10
12.742346
 20
64.525337
 10
12.996346
 20
64.059671
  0
LWPOLYLINE
  5
35
330
1F
100
AcDbEntity
  8
0
100
AcDbPolyline
 90
        2
 70
   128
 43
0.0
 10
12.996346
 20
64.059671
 10
13.335013
 20
63.721004
  0
LWPOLYLINE
  5
36
330
1F
100
AcDbEntity
  8
0
100
AcDbPolyline
 90
        2
 70
   128
 43
0.0
 10
13.335013
 20
63.721004
 10
13.758346
 20
63.509337
  0
LWPOLYLINE
  5
37
330
1F
100
AcDbEntity
  8
0
100
AcDbPolyline
 90
        2
 70
   128
 43
0.0
 10
13.758346
 20
63.509337
 10
14.266346
 20
63.424671
  0
LWPOLYLINE
  5
38
330
1F
100
AcDbEntity
  8
0
100
AcDbPolyline
 90
        2
 70
   128
 43
0.0
 10
14.266346
 20
63.424671
 10
14.774346
 20
63.509337
  0
LWPOLYLINE
  5
39
330
1F
100
AcDbEntity
  8
0
100
AcDbPolyline
 90
        2
 70
   128
 43
0.0
 10
14.774346
 20
63.509337
 10
15.19768
 20
63.721004
  0
LWPOLYLINE
  5
3A
330
1F
100
AcDbEntity
  8
0
100
AcDbPolyline
 90
        2
 70
   128
 43
0.0
 10
15.19768
 20
63.721004
 10
15.536346
 20
64.059671
  0
LWPOLYLINE
  5
3B
330
1F
100
AcDbEntity
  8
0
100
AcDbPolyline
 90
        2
 70
   128
 43
0.0
 10
15.536346
 20
64.059671
 10
15.790346
 20
64.525337
  0
LWPOLYLINE
  5
3C
330
1F
100
AcDbEntity
  8
0
100
AcDbPolyline
 90
        2
 70
   128
 43
0.0
 10
15.790346
 20
64.525337
 10
15.83268
 20
64.991004
  0
LWPOLYLINE
  5
3D
330
1F
100
AcDbEntity
  8
0
100
AcDbPolyline
 90
        2
 70
   128
 43
0.0
 10
15.83268
 20
64.991004
 10
15.790346
 20
65.499004
  0
LWPOLYLINE
  5
3E
330
1F
100
AcDbEntity
  8
0
100
AcDbPolyline
 90
        2
 70
   128
 43
0.0
 10
15.790346
 20
65.499004
 10
15.536346
 20
65.922337
  0
LWPOLYLINE
  5
3F
330
1F
100
AcDbEntity
  8
0
100
AcDbPolyline
 90
        2
 70
   128
 43
0.0
 10
15.536346
 20
65.922337
 10
15.19768
 20
66.303337
  0
LWPOLYLINE
  5
40
330
1F
100
AcDbEntity
  8
0
100
AcDbPolyline
 90
        2
 70
   128
 43
0.0
 10
15.19768
 20
66.303337
 10
14.774346
 20
66.515004
  0
LWPOLYLINE
  5
41
330
1F
100
AcDbEntity
  8
0
100
AcDbPolyline
 90
        2
 70
   128
 43
0.0
 10
14.774346
 20
66.515004
 10
14.266346
 20
66.599671
  0
LWPOLYLINE
  5
42
330
1F
100
AcDbEntity
  8
0
100
AcDbPolyline
 90
        2
 70
   128
 43
0.0
 10
95.891171
 20
66.599671
 10
95.383171
 20
66.515004
  0
LWPOLYLINE
  5
43
330
1F
100
AcDbEntity
  8
0
100
AcDbPolyline
 90
        2
 70
   128
 43
0.0
 10
95.383171
 20
66.515004
 10
94.959838
 20
66.303337
  0
LWPOLYLINE
  5
44
330
1F
100
AcDbEntity
  8
0
100
AcDbPolyline
 90
        2
 70
   128
 43
0.0
 10
94.959838
 20
66.303337
 10
94.621171
 20
65.922337
  0
LWPOLYLINE
  5
45
330
1F
100
AcDbEntity
  8
0
100
AcDbPolyline
 90
        2
 70
   128
 43
0.0
 10
94.621171
 20
65.922337
 10
94.367171
 20
65.499004
  0
LWPOLYLINE
  5
46
330
1F
100
AcDbEntity
  8
0
100
AcDbPolyline
 90
        2
 70
   128
 43
0.0
 10
94.367171
 20
65.499004
 10
94.282504
 20
64.991004
  0
LWPOLYLINE
  5
47
330
1F
100
AcDbEntity
  8
0
100
AcDbPolyline
 90
        2
 70
   128
 43
0.0
 10
94.282504
 20
64.991004
 10
94.367171
 20
64.525337
  0
LWPOLYLINE
  5
48
330
1F
100
AcDbEntity
  8
0
100
AcDbPolyline
 90
        2
 70
   128
 43
0.0
 10
94.367171
 20
64.525337
 10
94.621171
 20
64.059671
  0
LWPOLYLINE
  5
49
330
1F
100
AcDbEntity
  8
0
100
AcDbPolyline
 90
        2
 70
   128
 43
0.0
 10
94.621171
 20
64.059671
 10
94.959838
 20
63.721004
  0
LWPOLYLINE
  5
4A
330
1F
100
AcDbEntity
  8
0
100
AcDbPolyline
 90
        2
 70
   128
 43
0.0
 10
94.959838
 20
63.721004
 10
95.383171
 20
63.509337
  0
LWPOLYLINE
  5
4B
330
1F
100
AcDbEntity
  8
0
100
AcDbPolyline
 90
        2
 70
   128
 43
0.0
 10
95.383171
 20
63.509337
 10
95.891171
 20
63.424671
  0
LWPOLYLINE
  5
4C
330
1F
100
AcDbEntity
  8
0
100
AcDbPolyline
 90
        2
 70
   128
 43
0.0
 10
95.891171
 20
63.424671
 10
96.399171
 20
63.509337
  0
LWPOLYLINE
  5
4D
330
1F
100
AcDbEntity
  8
0
100
AcDbPolyline
 90
        2
 70
   128
 43
0.0
 10
96.399171
 20
63.509337
 10
96.822504
 20
63.721004
  0
LWPOLYLINE
  5
4E
330
1F
100
AcDbEntity
  8
0
100
AcDbPolyline
 90
        2
 70
   128
 43
0.0
 10
96.822504
 20
63.721004
 10
97.161171
 20
64.059671
  0
LWPOLYLINE
  5
4F
330
1F
100
AcDbEntity
  8
0
100
AcDbPolyline
 90
        2
 70
   128
 43
0.0
 10
97.161171
 20
64.059671
 10
97.415171
 20
64.525337
  0
LWPOLYLINE
  5
50
330
1F
100
AcDbEntity
  8
0
100
AcDbPolyline
 90
        2
 70
   128
 43
0.0
 10
97.415171
 20
64.525337
 10
97.457504
 20
64.991004
  0
LWPOLYLINE
  5
51
330
1F
100
AcDbEntity
  8
0
100
AcDbPolyline
 90
        2
 70
   128
 43
0.0
 10
97.457504
 20
64.991004
 10
97.415171
 20
65.499004
  0
LWPOLYLINE
  5
52
330
1F
100
AcDbEntity
  8
0
100
AcDbPolyline
 90
        2
 70
   128
 43
0.0
 10
97.415171
 20
65.499004
 10
97.161171
 20
65.922337
  0
LWPOLYLINE
  5
53
330
1F
100
AcDbEntity
  8
0
100
AcDbPolyline
 90
        2
 70
   128
 43
0.0
 10
97.161171
 20
65.922337
 10
96.822504
 20
66.303337
  0
LWPOLYLINE
  5
54
330
1F
100
AcDbEntity
  8
0
100
AcDbPolyline
 90
        2
 70
   128
 43
0.0
 10
96.822504
 20
66.303337
 10
96.399171
 20
66.515004
  0
LWPOLYLINE
  5
55
330
1F
100
AcDbEntity
  8
0
100
AcDbPolyline
 90
        2
 70
   128
 43
0.0
 10
96.399171
 20
66.515004
 10
95.891171
 20
66.599671
  0
LWPOLYLINE
  5
56
330
1F
100
AcDbEntity
  8
0
100
AcDbPolyline
 90
        2
 70
   128
 43
0.0
 10
95.891171
 20
6.350004
 10
95.383171
 20
6.265337
  0
LWPOLYLINE
  5
57
330
1F
100
AcDbEntity
  8
0
100
AcDbPolyline
 90
        2
 70
   128
 43
0.0
 10
95.383171
 20
6.265337
 10
94.959838
 20
6.053671
  0
LWPOLYLINE
  5
58
330
1F
100
AcDbEntity
  8
0
100
AcDbPolyline
 90
        2
 70
   128
 43
0.0
 10
94.959838
 20
6.053671
 10
94.621171
 20
5.715004
  0
LWPOLYLINE
  5
59
330
1F
100
AcDbEntity
  8
0
100
AcDbPolyline
 90
        2
 70
   128
 43
0.0
 10
94.621171
 20
5.715004
 10
94.367171
 20
5.249337
  0
LWPOLYLINE
  5
5A
330
1F
100
AcDbEntity
  8
0
100
AcDbPolyline
 90
        2
 70
   128
 43
0.0
 10
94.367171
 20
5.249337
 10
94.282504
 20
4.783671
  0
LWPOLYLINE
  5
5B
330
1F
100
AcDbEntity
  8
0
100
AcDbPolyline
 90
        2
 70
   128
 43
0.0
 10
94.282504
 20
4.783671
 10
94.367171
 20
4.275671
  0
LWPOLYLINE
  5
5C
330
1F
100
AcDbEntity
  8
0
100
AcDbPolyline
 90
        2
 70
   128
 43
0.0
 10
94.367171
 20
4.275671
 10
94.621171
 20
3.852337
  0
LWPOLYLINE
  5
5D
330
1F
100
AcDbEntity
  8
0
100
AcDbPolyline
 90
        2
 70
   128
 43
0.0
 10
94.621171
 20
3.852337
 10
94.959838
 20
3.471337
  0
LWPOLYLINE
  5
5E
330
1F
100
AcDbEntity
  8
0
100
AcDbPolyline
 90
        2
 70
   128
 43
0.0
 10
94.959838
 20
3.471337
 10
95.383171
 20
3.259671
  0
LWPOLYLINE
  5
5F
330
1F
100
AcDbEntity
  8
0
100
AcDbPolyline
 90
        2
 70
   128
 43
0.0
 10
95.383171
 20
3.259671
 10
95.891171
 20
3.175004
  0
LWPOLYLINE
  5
60
330
1F
100
AcDbEntity
  8
0
100
AcDbPolyline
 90
        2
 70
   128
 43
0.0
 10
95.891171
 20
3.175004
 10
96.399171
 20
3.259671
  0
LWPOLYLINE
  5
61
330
1F
100
AcDbEntity
  8
0
100
AcDbPolyline
 90
        2
 70
   128
 43
0.0
 10
96.399171
 20
3.259671
 10
96.822504
 20
3.471337
  0
LWPOLYLINE
  5
62
330
1F
100
AcDbEntity
  8
0
100
AcDbPolyline
 90
        2
 70
   128
 43
0.0
 10
96.822504
 20
3.471337
 10
97.161171
 20
3.852337
  0
LWPOLYLINE
  5
63
330
1F
100
AcDbEntity
  8
0
100
AcDbPolyline
 90
        2
 70
   128
 43
0.0
 10
97.161171
 20
3.852337
 10
97.415171
 20
4.275671
  0
LWPOLYLINE
  5
64
330
1F
100
AcDbEntity
  8
0
100
AcDbPolyline
 90
        2
 70
   128
 43
0.0
 10
97.415171
 20
4.275671
 10
97.457504
 20
4.783671
  0
LWPOLYLINE
  5
65
330
1F
100
AcDbEntity
  8
0
100
AcDbPolyline
 90
        2
 70
   128
 43
0.0
 10
97.457504
 20
4.783671
 10
97.415171
 20
5.249337
  0
LWPOLYLINE
  5
66
330
1F
100
AcDbEntity
  8
0
100
AcDbPolyline
 90
        2
 70
   128
 43
0.0
 10
97.415171
 20
5.249337
 10
97.161171
 20
5.715004
  0
LWPOLYLINE
  5
67
330
1F
100
AcDbEntity
  8
0
100
AcDbPolyline
 90
        2
 70
   128
 43
0.0
 10
97.161171
 20
5.715004
 10
96.822504
 20
6.053671
  0
LWPOLYLINE
  5
68
330
1F
100
AcDbEntity
  8
0
100
AcDbPolyline
 90
        2
 70
   128
 43
0.0
 10
96.822504
 20
6.053671
 10
96.399171
 20
6.265337
  0
LWPOLYLINE
  5
69
330
1F
100
AcDbEntity
  8
0
100
AcDbPolyline
 90
        2
 70
   128
 43
0.0
 10
96.399171
 20
6.265337
 10
95.891171
 20
6.350004
  0
LWPOLYLINE
  5
6A
330
1F
100
AcDbEntity
  8
0
100
AcDbPolyline
 90
        2
 70
   128
 43
0.0
 10
14.266346
 20
6.350004
 10
13.758346
 20
6.265337
  0
LWPOLYLINE
  5
6B
330
1F
100
AcDbEntity
  8
0
100
AcDbPolyline
 90
        2
 70
   128
 43
0.0
 10
13.758346
 20
6.265337
 10
13.335013
 20
6.053671
  0
LWPOLYLINE
  5
6C
330
1F
100
AcDbEntity
  8
0
100
AcDbPolyline
 90
        2
 70
   128
 43
0.0
 10
13.335013
 20
6.053671
 10
12.996346
 20
5.715004
  0
LWPOLYLINE
  5
6D
330
1F
100
AcDbEntity
  8
0
100
AcDbPolyline
 90
        2
 70
   128
 43
0.0
 10
12.996346
 20
5.715004
 10
12.742346
 20
5.249337
  0
LWPOLYLINE
  5
6E
330
1F
100
AcDbEntity
  8
0
100
AcDbPolyline
 90
        2
 70
   128
 43
0.0
 10
12.742346
 20
5.249337
 10
12.65768
 20
4.783671
  0
LWPOLYLINE
  5
6F
330
1F
100
AcDbEntity
  8
0
100
AcDbPolyline
 90
        2
 70
   128
 43
0.0
 10
12.65768
 20
4.783671
 10
12.742346
 20
4.275671
  0
LWPOLYLINE
  5
70
330
1F
100
AcDbEntity
  8
0
100
AcDbPolyline
 90
        2
 70
   128
 43
0.0
 10
12.742346
 20
4.275671
 10
12.996346
 20
3.852337
  0
LWPOLYLINE
  5
71
330
1F
100
AcDbEntity
  8
0
100
AcDbPolyline
 90
        2
 70
   128
 43
0.0
 10
12.996346
 20
3.852337
 10
13.335013
 20
3.471337
  0
LWPOLYLINE
  5
72
330
1F
100
AcDbEntity
  8
0
100
AcDbPolyline
 90
        2
 70
   128
 43
0.0
 10
13.335013
 20
3.471337
 10
13.758346
 20
3.259671
  0
LWPOLYLINE
  5
73
330
1F
100
AcDbEntity
  8
0
100
AcDbPolyline
 90
        2
 70
   128
 43
0.0
 10
13.758346
 20
3.259671
 10
14.266346
 20
3.175004
  0
LWPOLYLINE
  5
74
330
1F
100
AcDbEntity
  8
0
100
AcDbPolyline
 90
        2
 70
   128
 43
0.0
 10
14.266346
 20
3.175004
 10
14.774346
 20
3.259671
  0
LWPOLYLINE
  5
75
330
1F
100
AcDbEntity
  8
0
100
AcDbPolyline
 90
        2
 70
   128
 43
0.0
 10
14.774346
 20
3.259671
 10
15.19768
 20
3.471337
  0
LWPOLYLINE
  5
76
330
1F
100
AcDbEntity
  8
0
100
AcDbPolyline
 90
        2
 70
   128
 43
0.0
 10
15.19768
 20
3.471337
 10
15.536346
 20
3.852337
  0
LWPOLYLINE
  5
77
330
1F
100
AcDbEntity
  8
0
100
AcDbPolyline
 90
        2
 70
   128
 43
0.0
 10
15.536346
 20
3.852337
 10
15.790346
 20
4.275671
  0
LWPOLYLINE
  5
78
330
1F
100
AcDbEntity
  8
0
100
AcDbPolyline
 90
        2
 70
   128
 43
0.0
 10
15.790346
 20
4.275671
 10
15.83268
 20
4.783671
  0
LWPOLYLINE
  5
79
330
1F
100
AcDbEntity
  8
0
100
AcDbPolyline
 90
        2
 70
   128
 43
0.0
 10
15.83268
 20
4.783671
 10
15.790346
 20
5.249337
  0
LWPOLYLINE
  5
7A
330
1F
100
AcDbEntity
  8
0
100
AcDbPolyline
 90
        2
 70
   128
 43
0.0
 10
15.790346
 20
5.249337
 10
15.536346
 20
5.715004
  0
LWPOLYLINE
  5
7B
330
1F
100
AcDbEntity
  8
0
100
AcDbPolyline
 90
        2
 70
   128
 43
0.0
 10
15.536346
 20
5.715004
 10
15.19768
 20
6.053671
  0
LWPOLYLINE
  5
7C
330
1F
100
AcDbEntity
  8
0
100
AcDbPolyline
 90
        2
 70
   128
 43
0.0
 10
15.19768
 20
6.053671
 10
14.774346
 20
6.265337
  0
LWPOLYLINE
  5
7D
330
1F
100
AcDbEntity
  8
0
100
AcDbPolyline
 90
        2
 70
   128
 43
0.0
 10
14.774346
 20
6.265337
 10
14.266346
 20
6.350004
  0
LWPOLYLINE
  5
7E
330
1F
100
AcDbEntity
  8
0
100
AcDbPolyline
 90
        2
 70
   128
 43
0.0
 10
103.271259
 20
24.236414
 10
102.763259
 20
24.151747
  0
LWPOLYLINE
  5
7F
330
1F
100
AcDbEntity
  8
0
100
AcDbPolyline
 90
        2
 70
   128
 43
0.0
 10
102.763259
 20
24.151747
 10
102.339925
 20
23.94008
  0
LWPOLYLINE
  5
80
330
1F
100
AcDbEntity
  8
0
100
AcDbPolyline
 90
        2
 70
   128
 43
0.0
 10
102.339925
 20
23.94008
 10
102.001259
 20
23.55908
  0
LWPOLYLINE
  5
81
330
1F
100
AcDbEntity
  8
0
100
AcDbPolyline
 90
        2
 70
   128
 43
0.0
 10
102.001259
 20
23.55908
 10
101.747259
 20
23.135747
  0
LWPOLYLINE
  5
82
330
1F
100
AcDbEntity
  8
0
100
AcDbPolyline
 90
        2
 70
   128
 43
0.0
 10
101.747259
 20
23.135747
 10
101.662592
 20
22.627747
  0
LWPOLYLINE
  5
83
330
1F
100
AcDbEntity
  8
0
100
AcDbPolyline
 90
        2
 70
   128
 43
0.0
 10
101.662592
 20
22.627747
 10
101.747259
 20
22.16208
  0
LWPOLYLINE
  5
84
330
1F
100
AcDbEntity
  8
0
100
AcDbPolyline
 90
        2
 70
   128
 43
0.0
 10
101.747259
 20
22.16208
 10
102.001259
 20
21.696414
  0
LWPOLYLINE
  5
85
330
1F
100
AcDbEntity
  8
0
100
AcDbPolyline
 90
        2
 70
   128
 43
0.0
 10
102.001259
 20
21.696414
 10
102.339925
 20
21.357747
  0
LWPOLYLINE
  5
86
330
1F
100
AcDbEntity
  8
0
100
AcDbPolyline
 90
        2
 70
   128
 43
0.0
 10
102.339925
 20
21.357747
 10
102.763259
 20
21.14608
  0
LWPOLYLINE
  5
87
330
1F
100
AcDbEntity
  8
0
100
AcDbPolyline
 90
        2
 70
   128
 43
0.0
 10
102.763259
 20
21.14608
 10
103.271259
 20
21.061414
  0
LWPOLYLINE
  5
88
330
1F
100
AcDbEntity
  8
0
100
AcDbPolyline
 90
        2
 70
   128
 43
0.0
 10
103.271259
 20
21.061414
 10
103.779259
 20
21.14608
  0
LWPOLYLINE
  5
89
330
1F
100
AcDbEntity
  8
0
100
AcDbPolyline
 90
        2
 70
   128
 43
0.0
 10
103.779259
 20
21.14608
 10
104.202592
 20
21.357747
  0
LWPOLYLINE
  5
8A
330
1F
100
AcDbEntity
  8
0
100
AcDbPolyline
 90
        2
 70
   128
 43
0.0
 10
104.202592
 20
21.357747
 10
104.541259
 20
21.696414
  0
LWPOLYLINE
  5
8B
330
1F
100
AcDbEntity
  8
0
100
AcDbPolyline
 90
        2
 70
   128
 43
0.0
 10
104.541259
 20
21.696414
 10
104.795259
 20
22.16208
  0
LWPOLYLINE
  5
8C
330
1F
100
AcDbEntity
  8
0
100
AcDbPolyline
 90
        2
 70
   128
 43
0.0
 10
104.795259
 20
22.16208
 10
104.837592
 20
22.627747
  0
LWPOLYLINE
  5
8D
330
1F
100
AcDbEntity
  8
0
100
AcDbPolyline
 90
        2
 70
   128
 43
0.0
 10
104.837592
 20
22.627747
 10
104.795259
 20
23.135747
  0
LWPOLYLINE
  5
8E
330
1F
100
AcDbEntity
  8
0
100
AcDbPolyline
 90
        2
 70
   128
 43
0.0
 10
104.795259
 20
23.135747
 10
104.541259
 20
23.55908
  0
LWPOLYLINE
  5
8F
330
1F
100
AcDbEntity
  8
0
100
AcDbPolyline
 90
        2
 70
   128
 43
0.0
 10
104.541259
 20
23.55908
 10
104.202592
 20
23.94008
  0
LWPOLYLINE
  5
90
330
1F
100
AcDbEntity
  8
0
100
AcDbPolyline
 90
        2
 70
   128
 43
0.0
 10
104.202592
 20
23.94008
 10
103.779259
 20
24.151747
  0
LWPOLYLINE
  5
91
330
1F
100
AcDbEntity
  8
0
100
AcDbPolyline
 90
        2
 70
   128
 43
0.0
 10
103.779259
 20
24.151747
 10
103.271259
 20
24.236414
  0
LWPOLYLINE
  5
92
330
1F
100
AcDbEntity
  8
0
100
AcDbPolyline
 90
        2
 70
   128
 43
0.0
 10
54.802178
 20
44.61046
 10
54.294178
 20
44.525794
  0
LWPOLYLINE
  5
93
330
1F
100
AcDbEntity
  8
0
100
AcDbPolyline
 90
        2
 70
   128
 43
0.0
 10
54.294178
 20
44.525794
 10
53.870845
 20
44.314127
  0
LWPOLYLINE
  5
94
330
1F
100
AcDbEntity
  8
0
100
AcDbPolyline
 90
        2
 70
   128
 43
0.0
 10
53.870845
 20
44.314127
 10
53.532178
 20
43.933127
  0
LWPOLYLINE
  5
95
330
1F
100
AcDbEntity
  8
0
100
AcDbPolyline
 90
        2
 70
   128
 43
0.0
 10
53.532178
 20
43.933127
 10
53.278178
 20
43.509794
  0
LWPOLYLINE
  5
96
330
1F
100
AcDbEntity
  8
0
100
AcDbPolyline
 90
        2
 70
   128
 43
0.0
 10
53.278178
 20
43.509794
 10
53.193511
 20
43.001794
  0
LWPOLYLINE
  5
97
330
1F
100
AcDbEntity
  8
0
100
AcDbPolyline
 90
        2
 70
   128
 43
0.0
 10
53.193511
 20
43.001794
 10
53.278178
 20
42.536127
  0
LWPOLYLINE
  5
98
330
1F
100
AcDbEntity
  8
0
100
AcDbPolyline
 90
        2
 70
   128
 43
0.0
 10
53.278178
 20
42.536127
 10
53.532178
 20
42.07046
  0
LWPOLYLINE
  5
99
330
1F
100
AcDbEntity
  8
0
100
AcDbPolyline
 90
        2
 70
   128
 43
0.0
 10
53.532178
 20
42.07046
 10
53.870845
 20
41.731794
  0
LWPOLYLINE
  5
9A
330
1F
100
AcDbEntity
  8
0
100
AcDbPolyline
 90
        2
 70
   128
 43
0.0
 10
53.870845
 20
41.731794
 10
54.294178
 20
41.520127
  0
LWPOLYLINE
  5
9B
330
1F
100
AcDbEntity
  8
0
100
AcDbPolyline
 90
        2
 70
   128
 43
0.0
 10
54.294178
 20
41.520127
 10
54.802178
 20
41.43546
  0
LWPOLYLINE
  5
9C
330
1F
100
AcDbEntity
  8
0
100
AcDbPolyline
 90
        2
 70
   128
 43
0.0
 10
54.802178
 20
41.43546
 10
55.310178
 20
41.520127
  0
LWPOLYLINE
  5
9D
330
1F
100
AcDbEntity
  8
0
100
AcDbPolyline
 90
        2
 70
   128
 43
0.0
 10
55.310178
 20
41.520127
 10
55.733511
 20
41.731794
  0
LWPOLYLINE
  5
9E
330
1F
100
AcDbEntity
  8
0
100
AcDbPolyline
 90
        2
 70
   128
 43
0.0
 10
55.733511
 20
41.731794
 10
56.072178
 20
42.07046
  0
LWPOLYLINE
  5
9F
330
1F
100
AcDbEntity
  8
0
100
AcDbPolyline
 90
        2
 70
   128
 43
0.0
 10
56.072178
 20
42.07046
 10
56.326178
 20
42.536127
  0
LWPOLYLINE
  5
A0
330
1F
100
AcDbEntity
  8
0
100
AcDbPolyline
 90
        2
 70
   128
 43
0.0
 10
56.326178
 20
42.536127
 10
56.368511
 20
43.001794
  0
LWPOLYLINE
  5
A1
330
1F
100
AcDbEntity
  8
0
100
AcDbPolyline
 90
        2
 70
   128
 43
0.0
 10
56.368511
 20
43.001794
 10
56.326178
 20
43.509794
  0
LWPOLYLINE
  5
A2
330
1F
100
AcDbEntity
  8
0
100
AcDbPolyline
 90
        2
 70
   128
 43
0.0
 10
56.326178
 20
43.509794
 10
56.072178
 20
43.933127
  0
LWPOLYLINE
  5
A3
330
1F
100
AcDbEntity
  8
0
100
AcDbPolyline
 90
        2
 70
   128
 43
0.0
 10
56.072178
 20
43.933127
 10
55.733511
 20
44.314127
  0
LWPOLYLINE
  5
A4
330
1F
100
AcDbEntity
  8
0
100
AcDbPolyline
 90
        2
 70
   128
 43
0.0
 10
55.733511
 20
44.314127
 10
55.310178
 20
44.525794
  0
LWPOLYLINE
  5
A5
330
1F
100
AcDbEntity
  8
0
100
AcDbPolyline
 90
        2
 70
   128
 43
0.0
 10
55.310178
 20
44.525794
 10
54.802178
 20
44.61046
  0
LWPOLYLINE
  5
A6
330
1F
100
AcDbEntity
  8
0
100
AcDbPolyline
 90
        2
 70
   128
 43
0.0
 10
54.832017
 20
27.31557
 10
54.324017
 20
27.230903
  0
LWPOLYLINE
  5
A7
330
1F
100
AcDbEntity
  8
0
100
AcDbPolyline
 90
        2
 70
   128
 43
0.0
 10
54.324017
 20
27.230903
 10
53.900683
 20
27.019237
  0
LWPOLYLINE
  5
A8
330
1F
100
AcDbEntity
  8
0
100
AcDbPolyline
 90
        2
 70
   128
 43
0.0
 10
53.900683
 20
27.019237
 10
53.562017
 20
26.638237
  0
LWPOLYLINE
  5
A9
330
1F
100
AcDbEntity
  8
0
100
AcDbPolyline
 90
        2
 70
   128
 43
0.0
 10
53.562017
 20
26.638237
 10
53.308017
 20
26.214903
  0
LWPOLYLINE
  5
AA
330
1F
100
AcDbEntity
  8
0
100
AcDbPolyline
 90
        2
 70
   128
 43
0.0
 10
53.308017
 20
26.214903
 10
53.22335
 20
25.706903
  0
LWPOLYLINE
  5
AB
330
1F
100
AcDbEntity
  8
0
100
AcDbPolyline
 90
        2
 70
   128
 43
0.0
 10
53.22335
 20
25.706903
 10
53.308017
 20
25.241237
  0
LWPOLYLINE
  5
AC
330
1F
100
AcDbEntity
  8
0
100
AcDbPolyline
 90
        2
 70
   128
 43
0.0
 10
53.308017
 20
25.241237
 10
53.562017
 20
24.77557
  0
LWPOLYLINE
  5
AD
330
1F
100
AcDbEntity
  8
0
100
AcDbPolyline
 90
        2
 70
   128
 43
0.0
 10
53.562017
 20
24.77557
 10
53.900683
 20
24.436903
  0
LWPOLYLINE
  5
AE
330
1F
100
AcDbEntity
  8
0
100
AcDbPolyline
 90
        2
 70
   128
 43
0.0
 10
53.900683
 20
24.436903
 10
54.324017
 20
24.225237
  0
LWPOLYLINE
  5
AF
330
1F
100
AcDbEntity
  8
0
100
AcDbPolyline
 90
        2
 70
   128
 43
0.0
 10
54.324017
 20
24.225237
 10
54.832017
 20
24.14057
  0
LWPOLYLINE
  5
B0
330
1F
100
AcDbEntity
  8
0
100
AcDbPolyline
 90
        2
 70
   128
 43
0.0
 10
54.832017
 20
24.14057
 10
55.340017
 20
24.225237
  0
LWPOLYLINE
  5
B1
330
1F
100
AcDbEntity
  8
0
100
AcDbPolyline
 90
        2
 70
   128
 43
0.0
 10
55.340017
 20
24.225237
 10
55.76335
 20
24.436903
  0
LWPOLYLINE
  5
B2
330
1F
100
AcDbEntity
  8
0
100
AcDbPolyline
 90
        2
 70
   128
 43
0.0
 10
55.76335
 20
24.436903
 10
56.102017
 20
24.77557
  0
LWPOLYLINE
  5
B3
330
1F
100
AcDbEntity
  8
0
100
AcDbPolyline
 90
        2
 70
   128
 43
0.0
 10
56.102017
 20
24.77557
 10
56.356017
 20
25.241237
  0
LWPOLYLINE
  5
B4
330
1F
100
AcDbEntity
  8
0
100
AcDbPolyline
 90
        2
 70
   128
 43
0.0
 10
56.356017
 20
25.241237
 10
56.39835
 20
25.706903
  0
LWPOLYLINE
  5
B5
330
1F
100
AcDbEntity
  8
0
100
AcDbPolyline
 90
        2
 70
   128
 43
0.0
 10
56.39835
 20
25.706903
 10
56.356017
 20
26.214903
  0
LWPOLYLINE
  5
B6
330
1F
100
AcDbEntity
  8
0
100
AcDbPolyline
 90
        2
 70
   128
 43
0.0
 10
56.356017
 20
26.214903
 10
56.102017
 20
26.638237
  0
LWPOLYLINE
  5
B7
330
1F
100
AcDbEntity
  8
0
100
AcDbPolyline
 90
        2
 70
   128
 43
0.0
 10
56.102017
 20
26.638237
 10
55.76335
 20
27.019237
  0
LWPOLYLINE
  5
B8
330
1F
100
AcDbEntity
  8
0
100
AcDbPolyline
 90
        2
 70
   128
 43
0.0
 10
55.76335
 20
27.019237
 10
55.340017
 20
27.230903
  0
LWPOLYLINE
  5
B9
330
1F
100
AcDbEntity
  8
0
100
AcDbPolyline
 90
        2
 70
   128
 43
0.0
 10
55.340017
 20
27.230903
 10
54.832017
 20
27.31557
  0
LWPOLYLINE
  5
BA
330
1F
100
AcDbEntity
  8
0
100
AcDbPolyline
 90
        2
 70
   128
 43
0.0
 10
117.30568
 20
67.404004
 10
116.967013
 20
68.208337
  0
LWPOLYLINE
  5
BB
330
1F
100
AcDbEntity
  8
0
100
AcDbPolyline
 90
        2
 70
   128
 43
0.0
 10
116.967013
 20
68.208337
 10
116.459013
 20
68.843337
  0
LWPOLYLINE
  5
BC
330
1F
100
AcDbEntity
  8
0
100
AcDbPolyline
 90
        2
 70
   128
 43
0.0
 10
116.459013
 20
68.843337
 10
115.824013
 20
69.351337
  0
LWPOLYLINE
  5
BD
330
1F
100
AcDbEntity
  8
0
100
AcDbPolyline
 90
        2
 70
   128
 43
0.0
 10
115.824013
 20
69.351337
 10
115.062013
 20
69.690004
  0
LWPOLYLINE
  5
BE
330
1F
100
AcDbEntity
  8
0
100
AcDbPolyline
 90
        2
 70
   128
 43
0.0
 10
115.062013
 20
69.690004
 10
114.215346
 20
69.774671
  0
LWPOLYLINE
  5
BF
330
1F
100
AcDbEntity
  8
0
100
AcDbPolyline
 90
        2
 70
   128
 43
0.0
 10
114.215346
 20
0.000004
 10
115.062013
 20
0.127004
  0
LWPOLYLINE
  5
C0
330
1F
100
AcDbEntity
  8
0
100
AcDbPolyline
 90
        2
 70
   128
 43
0.0
 10
115.062013
 20
0.127004
 10
115.824013
 20
0.423337
  0
LWPOLYLINE
  5
C1
330
1F
100
AcDbEntity
  8
0
100
AcDbPolyline
 90
        2
 70
   128
 43
0.0
 10
115.824013
 20
0.423337
 10
116.459013
 20
0.931337
  0
LWPOLYLINE
  5
C2
330
1F
100
AcDbEntity
  8
0
100
AcDbPolyline
 90
        2
 70
   128
 43
0.0
 10
116.459013
 20
0.931337
 10
116.967013
 20
1.608671
  0
LWPOLYLINE
  5
C3
330
1F
100
AcDbEntity
  8
0
100
AcDbPolyline
 90
        2
 70
   128
 43
0.0
 10
116.967013
 20
1.608671
 10
117.30568
 20
2.370671
  0
LWPOLYLINE
  5
C4
330
1F
100
AcDbEntity
  8
0
100
AcDbPolyline
 90
        2
 70
   128
 43
0.0
 10
0.08468
 20
2.370671
 10
0.423346
 20
1.608671
  0
LWPOLYLINE
  5
C5
330
1F
100
AcDbEntity
  8
0
100
AcDbPolyline
 90
        2
 70
   128
 43
0.0
 10
0.423346
 20
1.608671
 10
0.931346
 20
0.931337
  0
LWPOLYLINE
  5
C6
330
1F
100
AcDbEntity
  8
0
100
AcDbPolyline
 90
        2
 70
   128
 43
0.0
 10
0.931346
 20
0.931337
 10
1.566346
 20
0.423337
  0
LWPOLYLINE
  5
C7
330
1F
100
AcDbEntity
  8
0
100
AcDbPolyline
 90
        2
 70
   128
 43
0.0
 10
1.566346
 20
0.423337
 10
2.328346
 20
0.127004
  0
LWPOLYLINE
  5
C8
330
1F
100
AcDbEntity
  8
0
100
AcDbPolyline
 90
        2
 70
   128
 43
0.0
 10
2.328346
 20
0.127004
 10
3.175013
 20
0.000004
  0
LWPOLYLINE
  5
C9
330
1F
100
AcDbEntity
  8
0
100
AcDbPolyline
 90
        2
 70
   128
 43
0.0
 10
3.175013
 20
69.774671
 10
2.328346
 20
69.690004
  0
LWPOLYLINE
  5
CA
330
1F
100
AcDbEntity
  8
0
100
AcDbPolyline
 90
        2
 70
   128
 43
0.0
 10
2.328346
 20
69.690004
 10
1.566346
 20
69.351337
  0
LWPOLYLINE
  5
CB
330
1F
100
AcDbEntity
  8
0
100
AcDbPolyline
 90
        2
 70
   128
 43
0.0
 10
1.566346
 20
69.351337
 10
0.931346
 20
68.843337
  0
LWPOLYLINE
  5
CC
330
1F
100
AcDbEntity
  8
0
100
AcDbPolyline
 90
        2
 70
   128
 43
0.0
 10
0.931346
 20
68.843337
 10
0.423346
 20
68.208337
  0
LWPOLYLINE
  5
CD
330
1F
100
AcDbEntity
  8
0
100
AcDbPolyline
 90
        2
 70
   128
 43
0.0
 10
0.423346
 20
68.208337
 10
0.08468
 20
67.404004
  0
LWPOLYLINE
  5
CE
330
1F
100
AcDbEntity
  8
0
100
AcDbPolyline
 90
        2
 70
   128
 43
0.0
 10
114.215346
 20
69.774671
 10
3.175013
 20
69.774671
  0
LWPOLYLINE
  5
CF
330
1F
100
AcDbEntity
  8
0
100
AcDbPolyline
 90
        4
 70
   128
 43
0.0
 10
117.30568
 20
2.370671
 10
117.390346
 20
3.175001
 10
117.390346
 20
66.599682
 10
117.30568
 20
67.404004
  0
LWPOLYLINE
  5
D0
330
1F
100
AcDbEntity
  8
0
100
AcDbPolyline
 90
        2
 70
   128
 43
0.0
 10
114.215346
 20
0.000004
 10
3.175013
 20
0.000004
  0
LWPOLYLINE
  5
D1
330
1F
100
AcDbEntity
  8
0
100
AcDbPolyline
 90
        4
 70
   128
 43
0.0
 10
0.08468
 20
2.370671
 10
0.000013
 20
3.175006
 10
0.000013
 20
66.599686
 10
0.08468
 20
67.404004
  0
LWPOLYLINE
  5
D2
330
1F
100
AcDbEntity
  8
0
100
AcDbPolyline
 90
        2
 70
   128
 43
0.0
 10
5.056595
 20
36.474509
 10
4.548595
 20
36.389842
  0
LWPOLYLINE
  5
D3
330
1F
100
AcDbEntity
  8
0
100
AcDbPolyline
 90
        2
 70
   128
 43
0.0
 10
4.548595
 20
36.389842
 10
4.125262
 20
36.178175
  0
LWPOLYLINE
  5
D4
330
1F
100
AcDbEntity
  8
0
100
AcDbPolyline
 90
        2
 70
   128
 43
0.0
 10
4.125262
 20
36.178175
 10
3.786595
 20
35.797175
  0
LWPOLYLINE
  5
D5
330
1F
100
AcDbEntity
  8
0
100
AcDbPolyline
 90
        2
 70
   128
 43
0.0
 10
3.786595
 20
35.797175
 10
3.532595
 20
35.373842
  0
LWPOLYLINE
  5
D6
330
1F
100
AcDbEntity
  8
0
100
AcDbPolyline
 90
        2
 70
   128
 43
0.0
 10
3.532595
 20
35.373842
 10
3.447929
 20
34.865842
  0
LWPOLYLINE
  5
D7
330
1F
100
AcDbEntity
  8
0
100
AcDbPolyline
 90
        2
 70
   128
 43
0.0
 10
3.447929
 20
34.865842
 10
3.532595
 20
34.400175
  0
LWPOLYLINE
  5
D8
330
1F
100
AcDbEntity
  8
0
100
AcDbPolyline
 90
        2
 70
   128
 43
0.0
 10
3.532595
 20
34.400175
 10
3.786595
 20
33.934509
  0
LWPOLYLINE
  5
D9
330
1F
100
AcDbEntity
  8
0
100
AcDbPolyline
 90
        2
 70
   128
 43
0.0
 10
3.786595
 20
33.934509
 10
4.125262
 20
33.595842
  0
LWPOLYLINE
  5
DA
330
1F
100
AcDbEntity
  8
0
100
AcDbPolyline
 90
        2
 70
   128
 43
0.0
 10
4.125262
 20
33.595842
 10
4.548595
 20
33.384175
  0
LWPOLYLINE
  5
DB
330
1F
100
AcDbEntity
  8
0
100
AcDbPolyline
 90
        2
 70
   128
 43
0.0
 10
4.548595
 20
33.384175
 10
5.056595
 20
33.299509
  0
LWPOLYLINE
  5
DC
330
1F
100
AcDbEntity
  8
0
100
AcDbPolyline
 90
        2
 70
   128
 43
0.0
 10
5.056595
 20
33.299509
 10
5.564595
 20
33.384175
  0
LWPOLYLINE
  5
DD
330
1F
100
AcDbEntity
  8
0
100
AcDbPolyline
 90
        2
 70
   128
 43
0.0
 10
5.564595
 20
33.384175
 10
5.987929
 20
33.595842
  0
LWPOLYLINE
  5
DE
330
1F
100
AcDbEntity
  8
0
100
AcDbPolyline
 90
        2
 70
   128
 43
0.0
 10
5.987929
 20
33.595842
 10
6.326595
 20
33.934509
  0
LWPOLYLINE
  5
DF
330
1F
100
AcDbEntity
  8
0
100
AcDbPolyline
 90
        2
 70
   128
 43
0.0
 10
6.326595
 20
33.934509
 10
6.580595
 20
34.400175
  0
LWPOLYLINE
  5
E0
330
1F
100
AcDbEntity
  8
0
100
AcDbPolyline
 90
        2
 70
   128
 43
0.0
 10
6.580595
 20
34.400175
 10
6.622929
 20
34.865842
  0
LWPOLYLINE
  5
E1
330
1F
100
AcDbEntity
  8
0
100
AcDbPolyline
 90
        2
 70
   128
 43
0.0
 10
6.622929
 20
34.865842
 10
6.580595
 20
35.373842
  0
LWPOLYLINE
  5
E2
330
1F
100
AcDbEntity
  8
0
100
AcDbPolyline
 90
        2
 70
   128
 43
0.0
 10
6.580595
 20
35.373842
 10
6.326595
 20
35.797175
  0
LWPOLYLINE
  5
E3
330
1F
100
AcDbEntity
  8
0
100
AcDbPolyline
 90
        2
 70
   128
 43
0.0
 10
6.326595
 20
35.797175
 10
5.987929
 20
36.178175
  0
LWPOLYLINE
  5
E4
330
1F
100
AcDbEntity
  8
0
100
AcDbPolyline
 90
        2
 70
   128
 43
0.0
 10
5.987929
 20
36.178175
 10
5.564595
 20
36.389842
  0
LWPOLYLINE
  5
E5
330
1F
100
AcDbEntity
  8
0
100
AcDbPolyline
 90
        2
 70
   128
 43
0.0
 10
5.564595
 20
36.389842
 10
5.056595
 20
36.474509
  0
LWPOLYLINE
  5
E6
330
1F
100
AcDbEntity
  8
0
100
AcDbPolyline
 90
        2
 70
   128
 43
0.0
 10
34.053947
 20
36.474509
 10
33.545947
 20
36.389842
  0
LWPOLYLINE
  5
E7
330
1F
100
AcDbEntity
  8
0
100
AcDbPolyline
 90
        2
 70
   128
 43
0.0
 10
33.545947
 20
36.389842
 10
33.122613
 20
36.178175
  0
LWPOLYLINE
  5
E8
330
1F
100
AcDbEntity
  8
0
100
AcDbPolyline
 90
        2
 70
   128
 43
0.0
 10
33.122613
 20
36.178175
 10
32.783947
 20
35.797175
  0
LWPOLYLINE
  5
E9
330
1F
100
AcDbEntity
  8
0
100
AcDbPolyline
 90
        2
 70
   128
 43
0.0
 10
32.783947
 20
35.797175
 10
32.529947
 20
35.373842
  0
LWPOLYLINE
  5
EA
330
1F
100
AcDbEntity
  8
0
100
AcDbPolyline
 90
        2
 70
   128
 43
0.0
 10
32.529947
 20
35.373842
 10
32.44528
 20
34.865842
  0
LWPOLYLINE
  5
EB
330
1F
100
AcDbEntity
  8
0
100
AcDbPolyline
 90
        2
 70
   128
 43
0.0
 10
32.44528
 20
34.865842
 10
32.529947
 20
34.400175
  0
LWPOLYLINE
  5
EC
330
1F
100
AcDbEntity
  8
0
100
AcDbPolyline
 90
        2
 70
   128
 43
0.0
 10
32.529947
 20
34.400175
 10
32.783947
 20
33.934509
  0
LWPOLYLINE
  5
ED
330
1F
100
AcDbEntity
  8
0
100
AcDbPolyline
 90
        2
 70
   128
 43
0.0
 10
32.783947
 20
33.934509
 10
33.122613
 20
33.595842
  0
LWPOLYLINE
  5
EE
330
1F
100
AcDbEntity
  8
0
100
AcDbPolyline
 90
        2
 70
   128
 43
0.0
 10
33.122613
 20
33.595842
 10
33.545947
 20
33.384175
  0
LWPOLYLINE
  5
EF
330
1F
100
AcDbEntity
  8
0
100
AcDbPolyline
 90
        2
 70
   128
 43
0.0
 10
33.545947
 20
33.384175
 10
34.053947
 20
33.299509
  0
LWPOLYLINE
  5
F0
330
1F
100
AcDbEntity
  8
0
100
AcDbPolyline
 90
        2
 70
   128
 43
0.0
 10
34.053947
 20
33.299509
 10
34.561947
 20
33.384175
  0
LWPOLYLINE
  5
F1
330
1F
100
AcDbEntity
  8
0
100
AcDbPolyline
 90
        2
 70
   128
 43
0.0
 10
34.561947
 20
33.384175
 10
34.98528
 20
33.595842
  0
LWPOLYLINE
  5
F2
330
1F
100
AcDbEntity
  8
0
100
AcDbPolyline
 90
        2
 70
   128
 43
0.0
 10
34.98528
 20
33.595842
 10
35.323947
 20
33.934509
  0
LWPOLYLINE
  5
F3
330
1F
100
AcDbEntity
  8
0
100
AcDbPolyline
 90
        2
 70
   128
 43
0.0
 10
35.323947
 20
33.934509
 10
35.577947
 20
34.400175
  0
LWPOLYLINE
  5
F4
330
1F
100
AcDbEntity
  8
0
100
AcDbPolyline
 90
        2
 70
   128
 43
0.0
 10
35.577947
 20
34.400175
 10
35.62028
 20
34.865842
  0
LWPOLYLINE
  5
F5
330
1F
100
AcDbEntity
  8
0
100
AcDbPolyline
 90
        2
 70
   128
 43
0.0
 10
35.62028
 20
34.865842
 10
35.577947
 20
35.373842
  0
LWPOLYLINE
  5
F6
330
1F
100
AcDbEntity
  8
0
100
AcDbPolyline
 90
        2
 70
   128
 43
0.0
 10
35.577947
 20
35.373842
 10
35.323947
 20
35.797175
  0
LWPOLYLINE
  5
F7
330
1F
100
AcDbEntity
  8
0
100
AcDbPolyline
 90
        2
 70
   128
 43
0.0
 10
35.323947
 20
35.797175
 10
34.98528
 20
36.178175
  0
LWPOLYLINE
  5
F8
330
1F
100
AcDbEntity
  8
0
100
AcDbPolyline
 90
        2
 70
   128
 43
0.0
 10
34.98528
 20
36.178175
 10
34.561947
 20
36.389842
  0
LWPOLYLINE
  5
F9
330
1F
100
AcDbEntity
  8
0
100
AcDbPolyline
 90
        2
 70
   128
 43
0.0
 10
34.561947
 20
36.389842
 10
34.053947
 20
36.474509
  0
LWPOLYLINE
  5
FA
330
1F
100
AcDbEntity
  8
0
100
AcDbPolyline
 90
        2
 70
   128
 43
0.0
 10
102.39003
 20
54.149704
 10
101.88203
 20
54.065037
  0
LWPOLYLINE
  5
FB
330
1F
100
AcDbEntity
  8
0
100
AcDbPolyline
 90
        2
 70
   128
 43
0.0
 10
101.88203
 20
54.065037
 10
101.458696
 20
53.853371
  0
LWPOLYLINE
  5
FC
330
1F
100
AcDbEntity
  8
0
100
AcDbPolyline
 90
        2
 70
   128
 43
0.0
 10
101.458696
 20
53.853371
 10
101.12003
 20
53.472371
  0
LWPOLYLINE
  5
FD
330
1F
100
AcDbEntity
  8
0
100
AcDbPolyline
 90
        2
 70
   128
 43
0.0
 10
101.12003
 20
53.472371
 10
100.86603
 20
53.049037
  0
LWPOLYLINE
  5
FE
330
1F
100
AcDbEntity
  8
0
100
AcDbPolyline
 90
        2
 70
   128
 43
0.0
 10
100.86603
 20
53.049037
 10
100.781363
 20
52.541037
  0
LWPOLYLINE
  5
FF
330
1F
100
AcDbEntity
  8
0
100
AcDbPolyline
 90
        2
 70
   128
 43
0.0
 10
100.781363
 20
52.541037
 10
100.86603
 20
52.075371
  0
LWPOLYLINE
  5
100
330
1F
100
AcDbEntity
  8
0
100
AcDbPolyline
 90
        2
 70
   128
 43
0.0
 10
100.86603
 20
52.075371
 10
101.12003
 20
51.609704
  0
LWPOLYLINE
  5
101
330
1F
100
AcDbEntity
  8
0
100
AcDbPolyline
 90
        2
 70
   128
 43
0.0
 10
101.12003
 20
51.609704
 10
101.458696
 20
51.271037
  0
LWPOLYLINE
  5
102
330
1F
100
AcDbEntity
  8
0
100
AcDbPolyline
 90
        2
 70
   128
 43
0.0
 10
101.458696
 20
51.271037
 10
101.88203
 20
51.059371
  0
LWPOLYLINE
  5
103
330
1F
100
AcDbEntity
  8
0
100
AcDbPolyline
 90
        2
 70
   128
 43
0.0
 10
101.88203
 20
51.059371
 10
102.39003
 20
50.974704
  0
LWPOLYLINE
  5
104
330
1F
100
AcDbEntity
  8
0
100
AcDbPolyline
 90
        2
 70
   128
 43
0.0
 10
102.39003
 20
50.974704
 10
102.89803
 20
51.059371
  0
LWPOLYLINE
  5
105
330
1F
100
AcDbEntity
  8
0
100
AcDbPolyline
 90
        2
 70
   128
 43
0.0
 10
102.89803
 20
51.059371
 10
103.321363
 20
51.271037
  0
LWPOLYLINE
  5
106
330
1F
100
AcDbEntity
  8
0
100
AcDbPolyline
 90
        2
 70
   128
 43
0.0
 10
103.321363
 20
51.271037
 10
103.66003
 20
51.609704
  0
LWPOLYLINE
  5
107
330
1F
100
AcDbEntity
  8
0
100
AcDbPolyline
 90
        2
 70
   128
 43
0.0
 10
103.66003
 20
51.609704
 10
103.91403
 20
52.075371
  0
LWPOLYLINE
  5
108
330
1F
100
AcDbEntity
  8
0
100
AcDbPolyline
 90
        2
 70
   128
 43
0.0
 10
103.91403
 20
52.075371
 10
103.956363
 20
52.541037
  0
LWPOLYLINE
  5
109
330
1F
100
AcDbEntity
  8
0
100
AcDbPolyline
 90
        2
 70
   128
 43
0.0
 10
103.956363
 20
52.541037
 10
103.91403
 20
53.049037
  0
LWPOLYLINE
  5
10A
330
1F
100
AcDbEntity
  8
0
100
AcDbPolyline
 90
        2
 70
   128
 43
0.0
 10
103.91403
 20
53.049037
 10
103.66003
 20
53.472371
  0
LWPOLYLINE
  5
10B
330
1F
100
AcDbEntity
  8
0
100
AcDbPolyline
 90
        2
 70
   128
 43
0.0
 10
103.66003
 20
53.472371
 10
103.321363
 20
53.853371
  0
LWPOLYLINE
  5
10C
330
1F
100
AcDbEntity
  8
0
100
AcDbPolyline
 90
        2
 70
   128
 43
0.0
 10
103.321363
 20
53.853371
 10
102.89803
 20
54.065037
  0
LWPOLYLINE
  5
10D
330
1F
100
AcDbEntity
  8
0
100
AcDbPolyline
 90
        2
 70
   128
 43
0.0
 10
102.89803
 20
54.065037
 10
102.39003
 20
54.149704
  0
LWPOLYLINE
  5
10E
330
1F
100
AcDbEntity
  8
0
100
AcDbPolyline
 90
        2
 70
   128
 43
0.0
 10
102.39003
 20
18.839639
 10
101.88203
 20
18.754973
  0
LWPOLYLINE
  5
10F
330
1F
100
AcDbEntity
  8
0
100
AcDbPolyline
 90
        2
 70
   128
 43
0.0
 10
101.88203
 20
18.754973
 10
101.458696
 20
18.543306
  0
LWPOLYLINE
  5
110
330
1F
100
AcDbEntity
  8
0
100
AcDbPolyline
 90
        2
 70
   128
 43
0.0
 10
101.458696
 20
18.543306
 10
101.12003
 20
18.162306
  0
LWPOLYLINE
  5
111
330
1F
100
AcDbEntity
  8
0
100
AcDbPolyline
 90
        2
 70
   128
 43
0.0
 10
101.12003
 20
18.162306
 10
100.86603
 20
17.738973
  0
LWPOLYLINE
  5
112
330
1F
100
AcDbEntity
  8
0
100
AcDbPolyline
 90
        2
 70
   128
 43
0.0
 10
100.86603
 20
17.738973
 10
100.781363
 20
17.230973
  0
LWPOLYLINE
  5
113
330
1F
100
AcDbEntity
  8
0
100
AcDbPolyline
 90
        2
 70
   128
 43
0.0
 10
100.781363
 20
17.230973
 10
100.86603
 20
16.765306
  0
LWPOLYLINE
  5
114
330
1F
100
AcDbEntity
  8
0
100
AcDbPolyline
 90
        2
 70
   128
 43
0.0
 10
100.86603
 20
16.765306
 10
101.12003
 20
16.299639
  0
LWPOLYLINE
  5
115
330
1F
100
AcDbEntity
  8
0
100
AcDbPolyline
 90
        2
 70
   128
 43
0.0
 10
101.12003
 20
16.299639
 10
101.458696
 20
15.960973
  0
LWPOLYLINE
  5
116
330
1F
100
AcDbEntity
  8
0
100
AcDbPolyline
 90
        2
 70
   128
 43
0.0
 10
101.458696
 20
15.960973
 10
101.88203
 20
15.749306
  0
LWPOLYLINE
  5
117
330
1F
100
AcDbEntity
  8
0
100
AcDbPolyline
 90
        2
 70
   128
 43
0.0
 10
101.88203
 20
15.749306
 10
102.39003
 20
15.664639
  0
LWPOLYLINE
  5
118
330
1F
100
AcDbEntity
  8
0
100
AcDbPolyline
 90
        2
 70
   128
 43
0.0
 10
102.39003
 20
15.664639
 10
102.89803
 20
15.749306
  0
LWPOLYLINE
  5
119
330
1F
100
AcDbEntity
  8
0
100
AcDbPolyline
 90
        2
 70
   128
 43
0.0
 10
102.89803
 20
15.749306
 10
103.321363
 20
15.960973
  0
LWPOLYLINE
  5
11A
330
1F
100
AcDbEntity
  8
0
100
AcDbPolyline
 90
        2
 70
   128
 43
0.0
 10
103.321363
 20
15.960973
 10
103.66003
 20
16.299639
  0
LWPOLYLINE
  5
11B
330
1F
100
AcDbEntity
  8
0
100
AcDbPolyline
 90
        2
 70
   128
 43
0.0
 10
103.66003
 20
16.299639
 10
103.91403
 20
16.765306
  0
LWPOLYLINE
  5
11C
330
1F
100
AcDbEntity
  8
0
100
AcDbPolyline
 90
        2
 70
   128
 43
0.0
 10
103.91403
 20
16.765306
 10
103.956363
 20
17.230973
  0
LWPOLYLINE
  5
11D
330
1F
100
AcDbEntity
  8
0
100
AcDbPolyline
 90
        2
 70
   128
 43
0.0
 10
103.956363
 20
17.230973
 10
103.91403
 20
17.738973
  0
LWPOLYLINE
  5
11E
330
1F
100
AcDbEntity
  8
0
100
AcDbPolyline
 90
        2
 70
   128
 43
0.0
 10
103.91403
 20
17.738973
 10
103.66003
 20
18.162306
  0
LWPOLYLINE
  5
11F
330
1F
100
AcDbEntity
  8
0
100
AcDbPolyline
 90
        2
 70
   128
 43
0.0
 10
103.66003
 20
18.162306
 10
103.321363
 20
18.543306
  0
LWPOLYLINE
  5
120
330
1F
100
AcDbEntity
  8
0
100
AcDbPolyline
 90
        2
 70
   128
 43
0.0
 10
103.321363
 20
18.543306
 10
102.89803
 20
18.754973
  0
LWPOLYLINE
  5
121
330
1F
100
AcDbEntity
  8
0
100
AcDbPolyline
 90
        2
 70
   128
 43
0.0
 10
102.89803
 20
18.754973
 10
102.39003
 20
18.839639
  0
LWPOLYLINE
  5
122
330
1F
100
AcDbEntity
  8
0
100
AcDbPolyline
 90
        2
 70
   128
 43
0.0
 10
41.300001
 20
18.839639
 10
40.792001
 20
18.754973
  0
LWPOLYLINE
  5
123
330
1F
100
AcDbEntity
  8
0
100
AcDbPolyline
 90
        2
 70
   128
 43
0.0
 10
40.792001
 20
18.754973
 10
40.368668
 20
18.543306
  0
LWPOLYLINE
  5
124
330
1F
100
AcDbEntity
  8
0
100
AcDbPolyline
 90
        2
 70
   128
 43
0.0
 10
40.368668
 20
18.543306
 10
40.030001
 20
18.162306
  0
LWPOLYLINE
  5
125
330
1F
100
AcDbEntity
  8
0
100
AcDbPolyline
 90
        2
 70
   128
 43
0.0
 10
40.030001
 20
18.162306
 10
39.776001
 20
17.738973
  0
LWPOLYLINE
  5
126
330
1F
100
AcDbEntity
  8
0
100
AcDbPolyline
 90
        2
 70
   128
 43
0.0
 10
39.776001
 20
17.738973
 10
39.691335
 20
17.230973
  0
LWPOLYLINE
  5
127
330
1F
100
AcDbEntity
  8
0
100
AcDbPolyline
 90
        2
 70
   128
 43
0.0
 10
39.691335
 20
17.230973
 10
39.776001
 20
16.765306
  0
LWPOLYLINE
  5
128
330
1F
100
AcDbEntity
  8
0
100
AcDbPolyline
 90
        2
 70
   128
 43
0.0
 10
39.776001
 20
16.765306
 10
40.030001
 20
16.299639
  0
LWPOLYLINE
  5
129
330
1F
100
AcDbEntity
  8
0
100
AcDbPolyline
 90
        2
 70
   128
 43
0.0
 10
40.030001
 20
16.299639
 10
40.368668
 20
15.960973
  0
LWPOLYLINE
  5
12A
330
1F
100
AcDbEntity
  8
0
100
AcDbPolyline
 90
        2
 70
   128
 43
0.0
 10
40.368668
 20
15.960973
 10
40.792001
 20
15.749306
  0
LWPOLYLINE
  5
12B
330
1F
100
AcDbEntity
  8
0
100
AcDbPolyline
 90
        2
 70
   128
 43
0.0
 10
40.792001
 20
15.749306
 10
41.300001
 20
15.664639
  0
LWPOLYLINE
  5
12C
330
1F
100
AcDbEntity
  8
0
100
AcDbPolyline
 90
        2
 70
   128
 43
0.0
 10
41.300001
 20
15.664639
 10
41.808001
 20
15.749306
  0
LWPOLYLINE
  5
12D
330
1F
100
AcDbEntity
  8
0
100
AcDbPolyline
 90
        2
 70
   128
 43
0.0
 10
41.808001
 20
15.749306
 10
42.231335
 20
15.960973
  0
LWPOLYLINE
  5
12E
330
1F
100
AcDbEntity
  8
0
100
AcDbPolyline
 90
        2
 70
   128
 43
0.0
 10
42.231335
 20
15.960973
 10
42.570001
 20
16.299639
  0
LWPOLYLINE
  5
12F
330
1F
100
AcDbEntity
  8
0
100
AcDbPolyline
 90
        2
 70
   128
 43
0.0
 10
42.570001
 20
16.299639
 10
42.824001
 20
16.765306
  0
LWPOLYLINE
  5
130
330
1F
100
AcDbEntity
  8
0
100
AcDbPolyline
 90
        2
 70
   128
 43
0.0
 10
42.824001
 20
16.765306
 10
42.866335
 20
17.230973
  0
LWPOLYLINE
  5
131
330
1F
100
AcDbEntity
  8
0
100
AcDbPolyline
 90
        2
 70
   128
 43
0.0
 10
42.866335
 20
17.230973
 10
42.824001
 20
17.738973
  0
LWPOLYLINE
  5
132
330
1F
100
AcDbEntity
  8
0
100
AcDbPolyline
 90
        2
 70
   128
 43
0.0
 10
42.824001
 20
17.738973
 10
42.570001
 20
18.162306
  0
LWPOLYLINE
  5
133
330
1F
100
AcDbEntity
  8
0
100
AcDbPolyline
 90
        2
 70
   128
 43
0.0
 10
42.570001
 20
18.162306
 10
42.231335
 20
18.543306
  0
LWPOLYLINE
  5
134
330
1F
100
AcDbEntity
  8
0
100
AcDbPolyline
 90
        2
 70
   128
 43
0.0
 10
42.231335
 20
18.543306
 10
41.808001
 20
18.754973
  0
LWPOLYLINE
  5
135
330
1F
100
AcDbEntity
  8
0
100
AcDbPolyline
 90
        2
 70
   128
 43
0.0
 10
41.808001
 20
18.754973
 10
41.300001
 20
18.839639
  0
LWPOLYLINE
  5
136
330
1F
100
AcDbEntity
  8
0
100
AcDbPolyline
 90
        2
 70
   128
 43
0.0
 10
41.300001
 20
54.149697
 10
40.792001
 20
54.065031
  0
LWPOLYLINE
  5
137
330
1F
100
AcDbEntity
  8
0
100
AcDbPolyline
 90
        2
 70
   128
 43
0.0
 10
40.792001
 20
54.065031
 10
40.368668
 20
53.853364
  0
LWPOLYLINE
  5
138
330
1F
100
AcDbEntity
  8
0
100
AcDbPolyline
 90
        2
 70
   128
 43
0.0
 10
40.368668
 20
53.853364
 10
40.030001
 20
53.472364
  0
LWPOLYLINE
  5
139
330
1F
100
AcDbEntity
  8
0
100
AcDbPolyline
 90
        2
 70
   128
 43
0.0
 10
40.030001
 20
53.472364
 10
39.776001
 20
53.049031
  0
LWPOLYLINE
  5
13A
330
1F
100
AcDbEntity
  8
0
100
AcDbPolyline
 90
        2
 70
   128
 43
0.0
 10
39.776001
 20
53.049031
 10
39.691335
 20
52.541031
  0
LWPOLYLINE
  5
13B
330
1F
100
AcDbEntity
  8
0
100
AcDbPolyline
 90
        2
 70
   128
 43
0.0
 10
39.691335
 20
52.541031
 10
39.776001
 20
52.075364
  0
LWPOLYLINE
  5
13C
330
1F
100
AcDbEntity
  8
0
100
AcDbPolyline
 90
        2
 70
   128
 43
0.0
 10
39.776001
 20
52.075364
 10
40.030001
 20
51.609697
  0
LWPOLYLINE
  5
13D
330
1F
100
AcDbEntity
  8
0
100
AcDbPolyline
 90
        2
 70
   128
 43
0.0
 10
40.030001
 20
51.609697
 10
40.368668
 20
51.271031
  0
LWPOLYLINE
  5
13E
330
1F
100
AcDbEntity
  8
0
100
AcDbPolyline
 90
        2
 70
   128
 43
0.0
 10
40.368668
 20
51.271031
 10
40.792001
 20
51.059364
  0
LWPOLYLINE
  5
13F
330
1F
100
AcDbEntity
  8
0
100
AcDbPolyline
 90
        2
 70
   128
 43
0.0
 10
40.792001
 20
51.059364
 10
41.300001
 20
50.974697
  0
LWPOLYLINE
  5
140
330
1F
100
AcDbEntity
  8
0
100
AcDbPolyline
 90
        2
 70
   128
 43
0.0
 10
41.300001
 20
50.974697
 10
41.808001
 20
51.059364
  0
LWPOLYLINE
  5
141
330
1F
100
AcDbEntity
  8
0
100
AcDbPolyline
 90
        2
 70
   128
 43
0.0
 10
41.808001
 20
51.059364
 10
42.231335
 20
51.271031
  0
LWPOLYLINE
  5
142
330
1F
100
AcDbEntity
  8
0
100
AcDbPolyline
 90
        2
 70
   128
 43
0.0
 10
42.231335
 20
51.271031
 10
42.570001
 20
51.609697
  0
LWPOLYLINE
  5
143
330
1F
100
AcDbEntity
  8
0
100
AcDbPolyline
 90
        2
 70
   128
 43
0.0
 10
42.570001
 20
51.609697
 10
42.824001
 20
52.075364
  0
LWPOLYLINE
  5
144
330
1F
100
AcDbEntity
  8
0
100
AcDbPolyline
 90
        2
 70
   128
 43
0.0
 10
42.824001
 20
52.075364
 10
42.866335
 20
52.541031
  0
LWPOLYLINE
  5
145
330
1F
100
AcDbEntity
  8
0
100
AcDbPolyline
 90
        2
 70
   128
 43
0.0
 10
42.866335
 20
52.541031
 10
42.824001
 20
53.049031
  0
LWPOLYLINE
  5
146
330
1F
100
AcDbEntity
  8
0
100
AcDbPolyline
 90
        2
 70
   128
 43
0.0
 10
42.824001
 20
53.049031
 10
42.570001
 20
53.472364
  0
LWPOLYLINE
  5
147
330
1F
100
AcDbEntity
  8
0
100
AcDbPolyline
 90
        2
 70
   128
 43
0.0
 10
42.570001
 20
53.472364
 10
42.231335
 20
53.853364
  0
LWPOLYLINE
  5
148
330
1F
100
AcDbEntity
  8
0
100
AcDbPolyline
 90
        2
 70
   128
 43
0.0
 10
42.231335
 20
53.853364
 10
41.808001
 20
54.065031
  0
LWPOLYLINE
  5
149
330
1F
100
AcDbEntity
  8
0
100
AcDbPolyline
 90
        2
 70
   128
 43
0.0
 10
41.808001
 20
54.065031
 10
41.300001
 20
54.149697
  0
LWPOLYLINE
  5
14A
330
1F
100
AcDbEntity
  8
0
100
AcDbPolyline
 90
        2
 70
   128
 43
0.0
 10
95.654077
 20
23.448292
 10
95.738744
 20
22.940292
  0
LWPOLYLINE
  5
14B
330
1F
100
AcDbEntity
  8
0
100
AcDbPolyline
 90
        2
 70
   128
 43
0.0
 10
95.738744
 20
22.940292
 10
95.950411
 20
22.516959
  0
LWPOLYLINE
  5
14C
330
1F
100
AcDbEntity
  8
0
100
AcDbPolyline
 90
        2
 70
   128
 43
0.0
 10
95.950411
 20
22.516959
 10
96.331411
 20
22.178292
  0
LWPOLYLINE
  5
14D
330
1F
100
AcDbEntity
  8
0
100
AcDbPolyline
 90
        2
 70
   128
 43
0.0
 10
96.331411
 20
22.178292
 10
96.754744
 20
21.924292
  0
LWPOLYLINE
  5
14E
330
1F
100
AcDbEntity
  8
0
100
AcDbPolyline
 90
        2
 70
   128
 43
0.0
 10
96.754744
 20
21.924292
 10
97.262744
 20
21.839626
  0
LWPOLYLINE
  5
14F
330
1F
100
AcDbEntity
  8
0
100
AcDbPolyline
 90
        2
 70
   128
 43
0.0
 10
97.262744
 20
21.839626
 10
97.728411
 20
21.924292
  0
LWPOLYLINE
  5
150
330
1F
100
AcDbEntity
  8
0
100
AcDbPolyline
 90
        2
 70
   128
 43
0.0
 10
97.728411
 20
21.924292
 10
98.194077
 20
22.178292
  0
LWPOLYLINE
  5
151
330
1F
100
AcDbEntity
  8
0
100
AcDbPolyline
 90
        2
 70
   128
 43
0.0
 10
98.194077
 20
22.178292
 10
98.532744
 20
22.516959
  0
LWPOLYLINE
  5
152
330
1F
100
AcDbEntity
  8
0
100
AcDbPolyline
 90
        2
 70
   128
 43
0.0
 10
98.532744
 20
22.516959
 10
98.744411
 20
22.940292
  0
LWPOLYLINE
  5
153
330
1F
100
AcDbEntity
  8
0
100
AcDbPolyline
 90
        2
 70
   128
 43
0.0
 10
98.744411
 20
22.940292
 10
98.829077
 20
23.448292
  0
LWPOLYLINE
  5
154
330
1F
100
AcDbEntity
  8
0
100
AcDbPolyline
 90
        2
 70
   128
 43
0.0
 10
98.829077
 20
23.448292
 10
98.744411
 20
23.956292
  0
LWPOLYLINE
  5
155
330
1F
100
AcDbEntity
  8
0
100
AcDbPolyline
 90
        2
 70
   128
 43
0.0
 10
98.744411
 20
23.956292
 10
98.532744
 20
24.379626
  0
LWPOLYLINE
  5
156
330
1F
100
AcDbEntity
  8
0
100
AcDbPolyline
 90
        2
 70
   128
 43
0.0
 10
98.532744
 20
24.379626
 10
98.194077
 20
24.718292
  0
LWPOLYLINE
  5
157
330
1F
100
AcDbEntity
  8
0
100
AcDbPolyline
 90
        2
 70
   128
 43
0.0
 10
98.194077
 20
24.718292
 10
97.728411
 20
24.972292
  0
LWPOLYLINE
  5
158
330
1F
100
AcDbEntity
  8
0
100
AcDbPolyline
 90
        2
 70
   128
 43
0.0
 10
97.728411
 20
24.972292
 10
97.262744
 20
25.014626
  0
LWPOLYLINE
  5
159
330
1F
100
AcDbEntity
  8
0
100
AcDbPolyline
 90
        2
 70
   128
 43
0.0
 10
97.262744
 20
25.014626
 10
96.754744
 20
24.972292
  0
LWPOLYLINE
  5
15A
330
1F
100
AcDbEntity
  8
0
100
AcDbPolyline
 90
        2
 70
   128
 43
0.0
 10
96.754744
 20
24.972292
 10
96.331411
 20
24.718292
  0
LWPOLYLINE
  5
15B
330
1F
100
AcDbEntity
  8
0
100
AcDbPolyline
 90
        2
 70
   128
 43
0.0
 10
96.331411
 20
24.718292
 10
95.950411
 20
24.379626
  0
LWPOLYLINE
  5
15C
330
1F
100
AcDbEntity
  8
0
100
AcDbPolyline
 90
        2
 70
   128
 43
0.0
 10
95.950411
 20
24.379626
 10
95.738744
 20
23.956292
  0
LWPOLYLINE
  5
15D
330
1F
100
AcDbEntity
  8
0
100
AcDbPolyline
 90
        2
 70
   128
 43
0.0
 10
95.738744
 20
23.956292
 10
95.654077
 20
23.448292
  0
LWPOLYLINE
  5
15E
330
1F
100
AcDbEntity
  8
0
100
AcDbPolyline
 90
        2
 70
   128
 43
0.0
 10
95.654077
 20
46.338833
 10
95.738744
 20
45.830833
  0
LWPOLYLINE
  5
15F
330
1F
100
AcDbEntity
  8
0
100
AcDbPolyline
 90
        2
 70
   128
 43
0.0
 10
95.738744
 20
45.830833
 10
95.950411
 20
45.4075
  0
LWPOLYLINE
  5
160
330
1F
100
AcDbEntity
  8
0
100
AcDbPolyline
 90
        2
 70
   128
 43
0.0
 10
95.950411
 20
45.4075
 10
96.331411
 20
45.068833
  0
LWPOLYLINE
  5
161
330
1F
100
AcDbEntity
  8
0
100
AcDbPolyline
 90
        2
 70
   128
 43
0.0
 10
96.331411
 20
45.068833
 10
96.754744
 20
44.814833
  0
LWPOLYLINE
  5
162
330
1F
100
AcDbEntity
  8
0
100
AcDbPolyline
 90
        2
 70
   128
 43
0.0
 10
96.754744
 20
44.814833
 10
97.262744
 20
44.730166
  0
LWPOLYLINE
  5
163
330
1F
100
AcDbEntity
  8
0
100
AcDbPolyline
 90
        2
 70
   128
 43
0.0
 10
97.262744
 20
44.730166
 10
97.728411
 20
44.814833
  0
LWPOLYLINE
  5
164
330
1F
100
AcDbEntity
  8
0
100
AcDbPolyline
 90
        2
 70
   128
 43
0.0
 10
97.728411
 20
44.814833
 10
98.194077
 20
45.068833
  0
LWPOLYLINE
  5
165
330
1F
100
AcDbEntity
  8
0
100
AcDbPolyline
 90
        2
 70
   128
 43
0.0
 10
98.194077
 20
45.068833
 10
98.532744
 20
45.4075
  0
LWPOLYLINE
  5
166
330
1F
100
AcDbEntity
  8
0
100
AcDbPolyline
 90
        2
 70
   128
 43
0.0
 10
98.532744
 20
45.4075
 10
98.744411
 20
45.830833
  0
LWPOLYLINE
  5
167
330
1F
100
AcDbEntity
  8
0
100
AcDbPolyline
 90
        2
 70
   128
 43
0.0
 10
98.744411
 20
45.830833
 10
98.829077
 20
46.338833
  0
LWPOLYLINE
  5
168
330
1F
100
AcDbEntity
  8
0
100
AcDbPolyline
 90
        2
 70
   128
 43
0.0
 10
98.829077
 20
46.338833
 10
98.744411
 20
46.846833
  0
LWPOLYLINE
  5
169
330
1F
100
AcDbEntity
  8
0
100
AcDbPolyline
 90
        2
 70
   128
 43
0.0
 10
98.744411
 20
46.846833
 10
98.532744
 20
47.270166
  0
LWPOLYLINE
  5
16A
330
1F
100
AcDbEntity
  8
0
100
AcDbPolyline
 90
        2
 70
   128
 43
0.0
 10
98.532744
 20
47.270166
 10
98.194077
 20
47.608833
  0
LWPOLYLINE
  5
16B
330
1F
100
AcDbEntity
  8
0
100
AcDbPolyline
 90
        2
 70
   128
 43
0.0
 10
98.194077
 20
47.608833
 10
97.728411
 20
47.862833
  0
LWPOLYLINE
  5
16C
330
1F
100
AcDbEntity
  8
0
100
AcDbPolyline
 90
        2
 70
   128
 43
0.0
 10
97.728411
 20
47.862833
 10
97.262744
 20
47.905166
  0
LWPOLYLINE
  5
16D
330
1F
100
AcDbEntity
  8
0
100
AcDbPolyline
 90
        2
 70
   128
 43
0.0
 10
97.262744
 20
47.905166
 10
96.754744
 20
47.862833
  0
LWPOLYLINE
  5
16E
330
1F
100
AcDbEntity
  8
0
100
AcDbPolyline
 90
        2
 70
   128
 43
0.0
 10
96.754744
 20
47.862833
 10
96.331411
 20
47.608833
  0
LWPOLYLINE
  5
16F
330
1F
100
AcDbEntity
  8
0
100
AcDbPolyline
 90
        2
 70
   128
 43
0.0
 10
96.331411
 20
47.608833
 10
95.950411
 20
47.270166
  0
LWPOLYLINE
  5
170
330
1F
100
AcDbEntity
  8
0
100
AcDbPolyline
 90
        2
 70
   128
 43
0.0
 10
95.950411
 20
47.270166
 10
95.738744
 20
46.846833
  0
LWPOLYLINE
  5
171
330
1F
100
AcDbEntity
  8
0
100
AcDbPolyline
 90
        2
 70
   128
 43
0.0
 10
95.738744
 20
46.846833
 10
95.654077
 20
46.338833
  0
LWPOLYLINE
  5
172
330
1F
100
AcDbEntity
  8
0
100
AcDbPolyline
 90
        2
 70
   128
 43
0.0
 10
70.941284
 20
45.406721
 10
71.322284
 20
45.068054
  0
LWPOLYLINE
  5
173
330
1F
100
AcDbEntity
  8
0
100
AcDbPolyline
 90
        2
 70
   128
 43
0.0
 10
71.322284
 20
45.068054
 10
71.745617
 20
44.814054
  0
LWPOLYLINE
  5
174
330
1F
100
AcDbEntity
  8
0
100
AcDbPolyline
 90
        2
 70
   128
 43
0.0
 10
71.745617
 20
44.814054
 10
72.253617
 20
44.729387
  0
LWPOLYLINE
  5
175
330
1F
100
AcDbEntity
  8
0
100
AcDbPolyline
 90
        2
 70
   128
 43
0.0
 10
72.253617
 20
44.729387
 10
72.719284
 20
44.814054
  0
LWPOLYLINE
  5
176
330
1F
100
AcDbEntity
  8
0
100
AcDbPolyline
 90
        2
 70
   128
 43
0.0
 10
72.719284
 20
44.814054
 10
73.184951
 20
45.068054
  0
LWPOLYLINE
  5
177
330
1F
100
AcDbEntity
  8
0
100
AcDbPolyline
 90
        2
 70
   128
 43
0.0
 10
73.184951
 20
45.068054
 10
73.523617
 20
45.406721
  0
LWPOLYLINE
  5
178
330
1F
100
AcDbEntity
  8
0
100
AcDbPolyline
 90
        2
 70
   128
 43
0.0
 10
73.523617
 20
45.406721
 10
73.735284
 20
45.830054
  0
LWPOLYLINE
  5
179
330
1F
100
AcDbEntity
  8
0
100
AcDbPolyline
 90
        2
 70
   128
 43
0.0
 10
73.735284
 20
45.830054
 10
73.819951
 20
46.338054
  0
LWPOLYLINE
  5
17A
330
1F
100
AcDbEntity
  8
0
100
AcDbPolyline
 90
        2
 70
   128
 43
0.0
 10
73.735284
 20
46.846054
 10
73.523617
 20
47.269387
  0
LWPOLYLINE
  5
17B
330
1F
100
AcDbEntity
  8
0
100
AcDbPolyline
 90
        2
 70
   128
 43
0.0
 10
73.523617
 20
47.269387
 10
73.184951
 20
47.608054
  0
LWPOLYLINE
  5
17C
330
1F
100
AcDbEntity
  8
0
100
AcDbPolyline
 90
        2
 70
   128
 43
0.0
 10
73.184951
 20
47.608054
 10
72.719284
 20
47.862054
  0
LWPOLYLINE
  5
17D
330
1F
100
AcDbEntity
  8
0
100
AcDbPolyline
 90
        2
 70
   128
 43
0.0
 10
72.719284
 20
47.862054
 10
72.253617
 20
47.904387
  0
LWPOLYLINE
  5
17E
330
1F
100
AcDbEntity
  8
0
100
AcDbPolyline
 90
        2
 70
   128
 43
0.0
 10
72.253617
 20
47.904387
 10
71.745617
 20
47.862054
  0
LWPOLYLINE
  5
17F
330
1F
100
AcDbEntity
  8
0
100
AcDbPolyline
 90
        2
 70
   128
 43
0.0
 10
71.745617
 20
47.862054
 10
71.322284
 20
47.608054
  0
LWPOLYLINE
  5
180
330
1F
100
AcDbEntity
  8
0
100
AcDbPolyline
 90
        2
 70
   128
 43
0.0
 10
71.322284
 20
47.608054
 10
70.941284
 20
47.269387
  0
LWPOLYLINE
  5
181
330
1F
100
AcDbEntity
  8
0
100
AcDbPolyline
 90
        2
 70
   128
 43
0.0
 10
70.644951
 20
46.338054
 10
70.729617
 20
45.830054
  0
LWPOLYLINE
  5
182
330
1F
100
AcDbEntity
  8
0
100
AcDbPolyline
 90
        2
 70
   128
 43
0.0
 10
70.729617
 20
45.830054
 10
70.941284
 20
45.406721
  0
LWPOLYLINE
  5
183
330
1F
100
AcDbEntity
  8
0
100
AcDbPolyline
 90
        2
 70
   128
 43
0.0
 10
70.941284
 20
47.269387
 10
70.729617
 20
46.846054
  0
LWPOLYLINE
  5
184
330
1F
100
AcDbEntity
  8
0
100
AcDbPolyline
 90
        2
 70
   128
 43
0.0
 10
70.729617
 20
46.846054
 10
70.644951
 20
46.338054
  0
LWPOLYLINE
  5
185
330
1F
100
AcDbEntity
  8
0
100
AcDbPolyline
 90
        2
 70
   128
 43
0.0
 10
73.819951
 20
46.338054
 10
73.735284
 20
46.846054
  0
LWPOLYLINE
  5
186
330
1F
100
AcDbEntity
  8
0
100
AcDbPolyline
 90
        2
 70
   128
 43
0.0
 10
71.283195
 20
22.178292
 10
71.706528
 20
21.924292
  0
LWPOLYLINE
  5
187
330
1F
100
AcDbEntity
  8
0
100
AcDbPolyline
 90
        2
 70
   128
 43
0.0
 10
71.706528
 20
21.924292
 10
72.214528
 20
21.839626
  0
LWPOLYLINE
  5
188
330
1F
100
AcDbEntity
  8
0
100
AcDbPolyline
 90
        2
 70
   128
 43
0.0
 10
72.214528
 20
21.839626
 10
72.680195
 20
21.924292
  0
LWPOLYLINE
  5
189
330
1F
100
AcDbEntity
  8
0
100
AcDbPolyline
 90
        2
 70
   128
 43
0.0
 10
72.680195
 20
21.924292
 10
73.145861
 20
22.178292
  0
LWPOLYLINE
  5
18A
330
1F
100
AcDbEntity
  8
0
100
AcDbPolyline
 90
        2
 70
   128
 43
0.0
 10
73.145861
 20
22.178292
 10
73.484528
 20
22.516959
  0
LWPOLYLINE
  5
18B
330
1F
100
AcDbEntity
  8
0
100
AcDbPolyline
 90
        2
 70
   128
 43
0.0
 10
73.484528
 20
22.516959
 10
73.696195
 20
22.940292
  0
LWPOLYLINE
  5
18C
330
1F
100
AcDbEntity
  8
0
100
AcDbPolyline
 90
        2
 70
   128
 43
0.0
 10
73.696195
 20
22.940292
 10
73.780861
 20
23.448292
  0
LWPOLYLINE
  5
18D
330
1F
100
AcDbEntity
  8
0
100
AcDbPolyline
 90
        2
 70
   128
 43
0.0
 10
73.780861
 20
23.448292
 10
73.696195
 20
23.956292
  0
LWPOLYLINE
  5
18E
330
1F
100
AcDbEntity
  8
0
100
AcDbPolyline
 90
        2
 70
   128
 43
0.0
 10
73.696195
 20
23.956292
 10
73.484528
 20
24.379626
  0
LWPOLYLINE
  5
18F
330
1F
100
AcDbEntity
  8
0
100
AcDbPolyline
 90
        2
 70
   128
 43
0.0
 10
73.484528
 20
24.379626
 10
73.145861
 20
24.718292
  0
LWPOLYLINE
  5
190
330
1F
100
AcDbEntity
  8
0
100
AcDbPolyline
 90
        2
 70
   128
 43
0.0
 10
73.145861
 20
24.718292
 10
72.680195
 20
24.972292
  0
LWPOLYLINE
  5
191
330
1F
100
AcDbEntity
  8
0
100
AcDbPolyline
 90
        2
 70
   128
 43
0.0
 10
72.680195
 20
24.972292
 10
72.214528
 20
25.014626
  0
LWPOLYLINE
  5
192
330
1F
100
AcDbEntity
  8
0
100
AcDbPolyline
 90
        2
 70
   128
 43
0.0
 10
72.214528
 20
25.014626
 10
71.706528
 20
24.972292
  0
LWPOLYLINE
  5
193
330
1F
100
AcDbEntity
  8
0
100
AcDbPolyline
 90
        2
 70
   128
 43
0.0
 10
71.706528
 20
24.972292
 10
71.283195
 20
24.718292
  0
LWPOLYLINE
  5
194
330
1F
100
AcDbEntity
  8
0
100
AcDbPolyline
 90
        2
 70
   128
 43
0.0
 10
70.605861
 20
23.448292
 10
70.690528
 20
22.940292
  0
LWPOLYLINE
  5
195
330
1F
100
AcDbEntity
  8
0
100
AcDbPolyline
 90
        2
 70
   128
 43
0.0
 10
70.690528
 20
22.940292
 10
70.902195
 20
22.516959
  0
LWPOLYLINE
  5
196
330
1F
100
AcDbEntity
  8
0
100
AcDbPolyline
 90
        2
 70
   128
 43
0.0
 10
70.902195
 20
22.516959
 10
71.283195
 20
22.178292
  0
LWPOLYLINE
  5
197
330
1F
100
AcDbEntity
  8
0
100
AcDbPolyline
 90
        2
 70
   128
 43
0.0
 10
71.283195
 20
24.718292
 10
70.902195
 20
24.379626
  0
LWPOLYLINE
  5
198
330
1F
100
AcDbEntity
  8
0
100
AcDbPolyline
 90
        2
 70
   128
 43
0.0
 10
70.902195
 20
24.379626
 10
70.690528
 20
23.956292
  0
LWPOLYLINE
  5
199
330
1F
100
AcDbEntity
  8
0
100
AcDbPolyline
 90
        2
 70
   128
 43
0.0
 10
70.690528
 20
23.956292
 10
70.605861
 20
23.448292
  0
ENDSEC
  0
SECTION
  2
OBJECTS
  0
DICTIONARY
  5
C
330
0
100
AcDbDictionary
281
     1
  3
ACAD_GROUP
350
D
  3
ACAD_LAYOUT
350
1A
  3
ACAD_MLINESTYLE
350
17
  3
ACAD_PLOTSETTINGS
350
19
  3
ACAD_PLOTSTYLENAME
350
E
  0
DICTIONARY
  5
D
102
{ACAD_REACTORS
330
C
102
}
330
C
100
AcDbDictionary
281
     1
  0
DICTIONARY
  5
1A
102
{ACAD_REACTORS
330
C
102
}
330
C
100
AcDbDictionary
281
     1
  3
Layout1
350
1E
  3
Layout2
350
26
  3
Model
350
22
  0
DICTIONARY
  5
17
102
{ACAD_REACTORS
330
C
102
}
330
C
100
AcDbDictionary
281
     1
  3
Standard
350
18
  0
DICTIONARY
  5
19
102
{ACAD_REACTORS
330
C
102
}
330
C
100
AcDbDictionary
281
     1
  0
ACDBDICTIONARYWDFLT
  5
E
102
{ACAD_REACTORS
330
C
102
}
330
C
100
AcDbDictionary
281
     1
  3
Normal
350
F
100
AcDbDictionaryWithDefault
340
F
  0
LAYOUT
  5
1E
102
{ACAD_REACTORS
330
1A
102
}
330
1A
100
AcDbPlotSettings
  1

  2

  4

  6

 40
0.0
 41
0.0
 42
0.0
 43
0.0
 44
0.0
 45
0.0
 46
0.0
 47
0.0
 48
0.0
 49
0.0
140
0.0
141
0.0
142
1.0
143
1.0
 70
   688
 72
     0
 73
     0
 74
     5
  7

 75
    16
147
1.0
148
0.0
149
0.0
100
AcDbLayout
  1
Layout1
 70
     1
 71
     1
 10
0.0
 20
0.0
 11
420.0
 21
297.0
 12
0.0
 22
0.0
 32
0.0
 14
1.000000E+20
 24
1.000000E+20
 34
1.000000E+20
 15
-1.000000E+20
 25
-1.000000E+20
 35
-1.000000E+20
146
0.0
 13
0.0
 23
0.0
 33
0.0
 16
1.0
 26
0.0
 36
0.0
 17
0.0
 27
1.0
 37
0.0
 76
     0
330
1B
  0
LAYOUT
  5
26
102
{ACAD_REACTORS
330
1A
102
}
330
1A
100
AcDbPlotSettings
  1

  2

  4

  6

 40
0.0
 41
0.0
 42
0.0
 43
0.0
 44
0.0
 45
0.0
 46
0.0
 47
0.0
 48
0.0
 49
0.0
140
0.0
141
0.0
142
1.0
143
1.0
 70
   688
 72
     0
 73
     0
 74
     5
  7

 75
    16
147
1.0
148
0.0
149
0.0
100
AcDbLayout
  1
Layout2
 70
     1
 71
     2
 10
0.0
 20
0.0
 11
0.0
 21
0.0
 12
0.0
 22
0.0
 32
0.0
 14
0.0
 24
0.0
 34
0.0
 15
0.0
 25
0.0
 35
0.0
146
0.0
 13
0.0
 23
0.0
 33
0.0
 16
1.0
 26
0.0
 36
0.0
 17
0.0
 27
1.0
 37
0.0
 76
     0
330
23
  0
LAYOUT
  5
22
102
{ACAD_REACTORS
330
1A
102
}
330
1A
100
AcDbPlotSettings
  1

  2

  4

  6

 40
0.0
 41
0.0
 42
0.0
 43
0.0
 44
0.0
 45
0.0
 46
0.0
 47
0.0
 48
0.0
 49
0.0
140
0.0
141
0.0
142
1.0
143
1.0
 70
  1712
 72
     0
 73
     0
 74
     0
  7

 75
     0
147
1.0
148
0.0
149
0.0
100
AcDbLayout
  1
Model
 70
     1
 71
     0
 10
0.0
 20
0.0
 11
0.0
 21
0.0
 12
0.0
 22
0.0
 32
0.0
 14
0.0
 24
0.0
 34
0.0
 15
0.0
 25
0.0
 35
0.0
146
0.0
 13
0.0
 23
0.0
 33
0.0
 16
1.0
 26
0.0
 36
0.0
 17
0.0
 27
1.0
 37
0.0
 76
     0
330
1F
  0
MLINESTYLE
  5
18
102
{ACAD_REACTORS
330
17
102
}
330
17
100
AcDbMlineStyle
  2
Standard
 70
     0
  3

 62
   256
 51
90.0
 52
90.0
 71
     2
 49
1.0
 62
   256
  6
BYLAYER
 49
-1.0
 62
   256
  6
BYLAYER
  0
ACDBPLACEHOLDER
  5
F
102
{ACAD_REACTORS
330
E
102
}
330
E
  0
ENDSEC
  0
EOF
